999
dxfrw 0.5.10
0
SECTION
2
HEADER
9
$ACADVER
1
AC1021
9
$HANDSEED
5
20000
9
$DWGCODEPAGE
3
ANSI_1252
9
$INSBASE
10
0
20
0
30
0
9
$EXTMIN
10
1.2561557621
20
27.5856541339
30
0
9
$EXTMAX
10
29.2141973243
20
33.1213290261
30
0
9
$LIMMIN
10
0
20
0
9
$LIMMAX
10
44
20
34
9
$ORTHOMODE
70
0
9
$LTSCALE
40
2.42
9
$TEXTSTYLE
7
STANDARD
9
$CLAYER
8
0
9
$DIMASZ
40
0.1875
9
$DIMLFAC
40
1
9
$DIMSCALE
40
1
9
$DIMEXO
40
0.0625
9
$DIMEXE
40
0.125
9
$DIMTXT
40
0.15625
9
$DIMTSZ
40
0
9
$DIMAUNIT
70
0
9
$DIMADEC
70
0
9
$DIMLUNIT
70
2
9
$DIMSTYLE
2
Standard
9
$DIMGAP
40
0.09
9
$DIMTIH
70
0
9
$LUNITS
70
2
9
$LUPREC
70
4
9
$AUNITS
70
0
9
$AUPREC
70
2
9
$SPLINESEGS
70
8
9
$GRIDMODE
70
0
9
$SNAPSTYLE
70
0
9
$VIEWCTR
10
22
20
17
9
$PINSBASE
10
0
20
0
30
0
9
$PLIMMIN
10
0
20
0
9
$PLIMMAX
10
0.000504527018106
20
0.000713545354179
9
$INSUNITS
70
1
9
$PSVPSCALE
40
1
0
ENDSEC
0
SECTION
2
CLASSES
0
ENDSEC
0
SECTION
2
TABLES
0
TABLE
2
VPORT
5
8
330
0
100
AcDbSymbolTable
70
1
0
VPORT
5
31
330
2
100
AcDbSymbolTableRecord
100
AcDbViewportTableRecord
2
*ACTIVE
70
0
10
0
20
0
11
1
21
1
12
12.5369541285
22
19.0050642202
13
0
23
0
14
10
24
10
15
10
25
10
16
0
26
0
36
1
17
0
27
0
37
0
40
13.9264
41
1.80504587156
42
50
43
0
44
0
50
0
51
0
71
0
72
100
73
1
74
3
75
0
76
0
77
0
78
0
281
0
65
1
110
0
120
0
130
0
111
1
121
0
131
0
112
0
122
1
132
0
79
0
146
0
348
10020
60
7
61
5
292
1
282
1
141
0
142
0
63
250
421
3358443
0
ENDTAB
0
TABLE
2
LTYPE
5
5
330
0
100
AcDbSymbolTable
70
4
0
LTYPE
5
14
330
5
100
AcDbSymbolTableRecord
100
AcDbLinetypeTableRecord
2
ByBlock
70
0
3

72
65
73
0
40
0
0
LTYPE
5
15
330
5
100
AcDbSymbolTableRecord
100
AcDbLinetypeTableRecord
2
ByLayer
70
0
3

72
65
73
0
40
0
0
LTYPE
5
16
330
5
100
AcDbSymbolTableRecord
100
AcDbLinetypeTableRecord
2
Continuous
70
0
3
Solid line
72
65
73
0
40
0
0
LTYPE
5
32
330
5
100
AcDbSymbolTableRecord
100
AcDbLinetypeTableRecord
2
DOT
70
0
3
Dot . . . . . . . . . . . . . . . . . . . . . .
72
65
73
2
40
6.35
49
0
74
0
49
-6.35
74
0
0
LTYPE
5
33
330
5
100
AcDbSymbolTableRecord
100
AcDbLinetypeTableRecord
2
DOT2
70
0
3
Dot (.5x) .....................................
72
65
73
2
40
3.175
49
0
74
0
49
-3.175
74
0
0
LTYPE
5
34
330
5
100
AcDbSymbolTableRecord
100
AcDbLinetypeTableRecord
2
DOTX2
70
0
3
Dot (2x) .  .  .  .  .  .  .  .  .  .  .  .  .
72
65
73
2
40
12.7
49
0
74
0
49
-12.7
74
0
0
LTYPE
5
35
330
5
100
AcDbSymbolTableRecord
100
AcDbLinetypeTableRecord
2
DASHED
70
0
3
Dot . . . . . . . . . . . . . . . . . . . . . .
72
65
73
2
40
19.05
49
12.7
74
0
49
-6.35
74
0
0
LTYPE
5
36
330
5
100
AcDbSymbolTableRecord
100
AcDbLinetypeTableRecord
2
DASHED2
70
0
3
Dashed (.5x) _ _ _ _ _ _ _ _ _ _ _ _ _ _ _ _ _
72
65
73
2
40
9.525
49
6.35
74
0
49
-3.175
74
0
0
LTYPE
5
37
330
5
100
AcDbSymbolTableRecord
100
AcDbLinetypeTableRecord
2
DASHEDX2
70
0
3
Dashed (2x) ____  ____  ____  ____  ____  ___
72
65
73
2
40
38.1
49
25.4
74
0
49
-12.7
74
0
0
LTYPE
5
38
330
5
100
AcDbSymbolTableRecord
100
AcDbLinetypeTableRecord
2
DASHDOT
70
0
3
Dash dot __ . __ . __ . __ . __ . __ . __ . __
72
65
73
4
40
25.4
49
12.7
74
0
49
-6.35
74
0
49
0
74
0
49
-6.35
74
0
0
LTYPE
5
39
330
5
100
AcDbSymbolTableRecord
100
AcDbLinetypeTableRecord
2
DASHDOT2
70
0
3
Dash dot (.5x) _._._._._._._._._._._._._._._.
72
65
73
4
40
12.7
49
6.35
74
0
49
-3.175
74
0
49
0
74
0
49
-3.175
74
0
0
LTYPE
5
3A
330
5
100
AcDbSymbolTableRecord
100
AcDbLinetypeTableRecord
2
DASHDOTX2
70
0
3
Dash dot (2x) ____  .  ____  .  ____  .  ___
72
65
73
4
40
50.8
49
25.4
74
0
49
-12.7
74
0
49
0
74
0
49
-12.7
74
0
0
LTYPE
5
3B
330
5
100
AcDbSymbolTableRecord
100
AcDbLinetypeTableRecord
2
DIVIDE
70
0
3
Divide ____ . . ____ . . ____ . . ____ . . ____
72
65
73
6
40
31.75
49
12.7
74
0
49
-6.35
74
0
49
0
74
0
49
-6.35
74
0
49
0
74
0
49
-6.35
74
0
0
LTYPE
5
3C
330
5
100
AcDbSymbolTableRecord
100
AcDbLinetypeTableRecord
2
DIVIDE2
70
0
3
Divide (.5x) __..__..__..__..__..__..__..__.._
72
65
73
6
40
15.875
49
6.35
74
0
49
-3.175
74
0
49
0
74
0
49
-3.175
74
0
49
0
74
0
49
-3.175
74
0
0
LTYPE
5
3D
330
5
100
AcDbSymbolTableRecord
100
AcDbLinetypeTableRecord
2
DIVIDEX2
70
0
3
Divide (2x) ________  .  .  ________  .  .  _
72
65
73
6
40
63.5
49
25.4
74
0
49
-12.7
74
0
49
0
74
0
49
-12.7
74
0
49
0
74
0
49
-12.7
74
0
0
LTYPE
5
3E
330
5
100
AcDbSymbolTableRecord
100
AcDbLinetypeTableRecord
2
BORDER
70
0
3
Border __ __ . __ __ . __ __ . __ __ . __ __ .
72
65
73
6
40
44.45
49
12.7
74
0
49
-6.35
74
0
49
12.7
74
0
49
-6.35
74
0
49
0
74
0
49
-6.35
74
0
0
LTYPE
5
3F
330
5
100
AcDbSymbolTableRecord
100
AcDbLinetypeTableRecord
2
BORDER2
70
0
3
Border (.5x) __.__.__.__.__.__.__.__.__.__.__.
72
65
73
6
40
22.225
49
6.35
74
0
49
-3.175
74
0
49
6.35
74
0
49
-3.175
74
0
49
0
74
0
49
-3.175
74
0
0
LTYPE
5
40
330
5
100
AcDbSymbolTableRecord
100
AcDbLinetypeTableRecord
2
BORDERX2
70
0
3
Border (2x) ____  ____  .  ____  ____  .  ___
72
65
73
6
40
88.9
49
25.4
74
0
49
-12.7
74
0
49
25.4
74
0
49
-12.7
74
0
49
0
74
0
49
-12.7
74
0
0
LTYPE
5
41
330
5
100
AcDbSymbolTableRecord
100
AcDbLinetypeTableRecord
2
CENTER
70
0
3
Center ____ _ ____ _ ____ _ ____ _ ____ _ ____
72
65
73
4
40
50.8
49
31.75
74
0
49
-6.35
74
0
49
6.35
74
0
49
-6.35
74
0
0
LTYPE
5
42
330
5
100
AcDbSymbolTableRecord
100
AcDbLinetypeTableRecord
2
CENTER2
70
0
3
Center (.5x) ___ _ ___ _ ___ _ ___ _ ___ _ ___
72
65
73
4
40
28.575
49
19.05
74
0
49
-3.175
74
0
49
3.175
74
0
49
-3.175
74
0
0
LTYPE
5
43
330
5
100
AcDbSymbolTableRecord
100
AcDbLinetypeTableRecord
2
CENTERX2
70
0
3
Center (2x) ________  __  ________  __  _____
72
65
73
4
40
101.6
49
63.5
74
0
49
-12.7
74
0
49
12.7
74
0
49
-12.7
74
0
0
ENDTAB
0
TABLE
2
LAYER
5
2
330
0
100
AcDbSymbolTable
70
1
0
LAYER
5
10
330
2
100
AcDbSymbolTableRecord
100
AcDbLayerTableRecord
2
0
70
0
62
7
6
CONTINUOUS
370
-3
390
F
0
ENDTAB
0
TABLE
2
STYLE
5
3
330
0
100
AcDbSymbolTable
70
3
0
STYLE
5
44
330
2
100
AcDbSymbolTableRecord
100
AcDbTextStyleTableRecord
2
Standard
70
0
40
0
41
1
50
0
71
0
42
1
3
txt
4

0
ENDTAB
0
TABLE
2
VIEW
5
6
330
0
100
AcDbSymbolTable
70
0
0
ENDTAB
0
TABLE
2
UCS
5
7
330
0
100
AcDbSymbolTable
70
0
0
ENDTAB
0
TABLE
2
APPID
5
9
330
0
100
AcDbSymbolTable
70
1
0
APPID
5
12
330
9
100
AcDbSymbolTableRecord
100
AcDbRegAppTableRecord
2
ACAD
70
0
0
ENDTAB
0
TABLE
2
DIMSTYLE
5
A
330
0
100
AcDbSymbolTable
70
1
100
AcDbDimStyleTable
71
1
0
DIMSTYLE
105
45
330
A
100
AcDbSymbolTableRecord
100
AcDbDimStyleTableRecord
2
Standard
70
0
40
1
41
0.1875
42
0.0625
43
0.38
44
0.125
45
0
46
0
47
0
48
0
140
0.15625
141
0.09
142
0
143
25.4
144
1
145
0
146
1
147
0.09
148
0
71
0
72
0
73
0
74
1
75
0
76
0
77
0
78
0
79
0
170
0
171
2
172
0
173
0
174
0
175
0
176
0
177
0
178
0
179
0
271
4
272
4
273
2
274
2
275
0
276
0
277
2
278
46
279
0
280
0
281
0
282
0
283
1
284
0
285
0
286
0
288
0
289
3
340
Standard
341

371
-2
372
-2
0
ENDTAB
0
TABLE
2
BLOCK_RECORD
5
1
330
0
100
AcDbSymbolTable
70
2
0
BLOCK_RECORD
5
1F
330
1
100
AcDbSymbolTableRecord
100
AcDbBlockTableRecord
2
*Model_Space
70
0
280
1
281
0
0
BLOCK_RECORD
5
1E
330
1
100
AcDbSymbolTableRecord
100
AcDbBlockTableRecord
2
*Paper_Space
70
0
280
1
281
0
0
ENDTAB
0
ENDSEC
0
SECTION
2
BLOCKS
0
BLOCK
5
20
330
1F
100
AcDbEntity
8
0
100
AcDbBlockBegin
2
*Model_Space
70
0
10
0
20
0
30
0
3
*Model_Space
1

0
ENDBLK
5
21
330
1F
100
AcDbEntity
8
0
100
AcDbBlockEnd
0
BLOCK
5
1C
330
1B
100
AcDbEntity
8
0
100
AcDbBlockBegin
2
*Paper_Space
70
0
10
0
20
0
30
0
3
*Paper_Space
1

0
ENDBLK
5
1D
330
1F
100
AcDbEntity
8
0
100
AcDbBlockEnd
0
ENDSEC
0
SECTION
2
ENTITIES
0
LWPOLYLINE
5
46
100
AcDbEntity
8
0
6
CONTINUOUS
62
7
370
-1
100
AcDbPolyline
90
13
70
0
43
0
10
9.580187952
20
31.6489120849
10
9.5544497903
20
31.5209741957
10
9.5375705821
20
31.3903924401
10
9.5295503273
20
31.2571668181
10
9.5299223888
20
31.1218321612
10
9.5391534038
20
30.9838536378
10
9.5586432834
20
30.8416267542
10
9.5881233321
20
30.6947216182
10
9.6278622454
20
30.5435681219
10
9.680066021
20
30.3878514472
10
9.7454699914
20
30.2274666548
10
9.823338824
20
30.062518684
10
9.9136725189
20
29.8930075348
0
LWPOLYLINE
5
47
100
AcDbEntity
8
0
6
CONTINUOUS
62
7
370
-1
100
AcDbPolyline
90
13
70
0
43
0
10
10.7524821246
20
32.9145836229
10
10.6288155816
20
32.8729045801
10
10.5072888598
20
32.8222315255
10
10.3879019594
20
32.7625644589
10
10.2708847392
20
32.6945749157
10
10.1560073403
20
32.6175913605
10
10.0425801857
20
32.5295991878
10
9.9300966304
20
32.4306161488
10
9.8190633194
20
32.3206244922
10
9.7103106111
20
32.197556359
10
9.6041152917
20
32.060722463
10
9.500200575
20
31.9108120903
10
9.398566461
20
31.7478252411
0
LWPOLYLINE
5
48
100
AcDbEntity
8
0
6
CONTINUOUS
62
7
370
-1
100
AcDbPolyline
90
13
70
0
43
0
10
10.0901445705
20
30.0008397818
10
10.1880729518
20
29.9145809353
10
10.2927204653
20
29.8346722344
10
10.4040871109
20
29.761113679
10
10.5214763927
20
29.6937685653
10
10.6455848066
20
29.6327735971
10
10.7785018407
20
29.5785388861
10
10.9204654448
20
29.5306167892
10
11.0712376691
20
29.4894549495
10
11.2321941529
20
29.4568064079
10
11.4037934427
20
29.4332555116
10
11.5855769921
20
29.4182179134
10
11.7775448009
20
29.4116936134
0
LWPOLYLINE
5
49
100
AcDbEntity
8
0
6
CONTINUOUS
62
7
370
-1
100
AcDbPolyline
90
34
70
0
43
0
10
9.985395427
20
30.6342254913
10
9.9638956554
20
30.6803566372
10
9.9449906003
20
30.724355398
10
9.9286802618
20
30.7662217736
10
9.91501897
20
30.8061742881
10
9.9039523948
20
30.8439944173
10
9.8953175454
20
30.8790265896
10
9.8892161404
20
30.9110444128
10
9.8855464612
20
30.9402742791
10
9.8838403617
20
30.9667397933
10
9.8841175243
20
30.9903319574
10
9.8863582666
20
31.0111597695
10
9.8900353959
20
31.0295738285
10
9.8950676042
20
31.0455273564
10
9.9015361994
20
31.0590671312
10
9.9091579124
20
31.0706840861
10
9.9177932755
20
31.0804282247
10
9.9275817563
20
31.0882495434
10
9.9386584881
20
31.0944889647
10
9.9508993289
20
31.0993085777
10
9.9644284206
20
31.1025462933
10
9.9797533227
20
31.1040567665
10
9.9968985185
20
31.1039336205
10
10.0158395248
20
31.1020832322
10
10.0370104509
20
31.0980793878
10
10.0605589985
20
31.0918147832
10
10.0863374659
20
31.0833967226
10
10.1143368576
20
31.0727209045
10
10.1446351988
20
31.0595723405
10
10.1771544642
20
31.044166019
10
10.2116515831
20
31.0270426045
10
10.2480455318
20
31.0083823186
10
10.2864173341
20
30.9880049398
10
10.3267669898
20
30.965910468
0
LWPOLYLINE
5
4A
100
AcDbEntity
8
0
6
CONTINUOUS
62
7
370
-1
100
AcDbPolyline
90
10
70
0
43
0
10
10.3267669898
20
30.965910468
10
10.3551244152
20
30.9509172175
10
10.3834732104
20
30.9362553365
10
10.4118133752
20
30.9219248249
10
10.4401603156
20
30.9078934295
10
10.4684986256
20
30.8941934035
10
10.4967820881
20
30.8809215069
10
10.5249952973
20
30.8681099929
10
10.553153659
20
30.8557266083
10
10.5812571731
20
30.843771353
0
LWPOLYLINE
5
4B
100
AcDbEntity
8
0
6
CONTINUOUS
62
7
370
-1
100
AcDbPolyline
90
16
70
0
43
0
10
10.9811887463
20
31.7536506109
10
10.8880210181
20
31.7050392135
10
10.8017038345
20
31.6650530798
10
10.7222371955
20
31.6336922098
10
10.6503347599
20
31.6119814721
10
10.5852828688
20
31.5988959981
10
10.5249405458
20
31.5913611819
10
10.4693320735
20
31.5888096484
10
10.4184331692
20
31.5918087726
10
10.3700300091
20
31.5989860737
10
10.3238831547
20
31.6097606343
10
10.2802320445
20
31.6247133718
10
10.2375811695
20
31.6442145569
10
10.1954320266
20
31.6683876135
10
10.154283119
20
31.6971091177
10
10.1141344466
20
31.7303790697
0
LWPOLYLINE
5
4C
100
AcDbEntity
8
0
6
CONTINUOUS
62
7
370
-1
100
AcDbPolyline
90
10
70
0
43
0
10
10.5812571731
20
30.843771353
10
10.6585130335
20
30.813658854
10
10.7351851584
20
30.7872765887
10
10.8112735479
20
30.7646245572
10
10.8865228945
20
30.7458152023
10
10.9611885057
20
30.730736081
10
11.0360363039
20
30.719049865
10
11.1113215966
20
30.7106441114
10
11.1867890763
20
30.705631263
10
11.262438743
20
30.7040113198
0
LWPOLYLINE
5
4D
100
AcDbEntity
8
0
6
CONTINUOUS
62
7
370
-1
100
AcDbPolyline
90
16
70
0
43
0
10
10.1141344466
20
31.7303790697
10
10.0942036323
20
31.749385051
10
10.0767243141
20
31.769024227
10
10.061696492
20
31.7892965977
10
10.0491028935
20
31.8103663257
10
10.0389607911
20
31.8320692484
10
10.0313220028
20
31.8539128782
10
10.0262164613
20
31.8757481972
10
10.023614234
20
31.8977242233
10
10.0234773409
20
31.9197955224
10
10.0257998995
20
31.9419871375
10
10.0305877924
20
31.9642740257
10
10.0378206865
20
31.9865356234
10
10.0474918045
20
32.0087317429
10
10.0596079237
20
32.0309025719
10
10.0741690444
20
32.0530481105
0
LINE
5
4E
100
AcDbEntity
8
0
6
CONTINUOUS
62
7
370
-1
100
AcDbLine
10
9.9136725189
20
29.8930075348
11
9.99956783
21
29.9953735804
0
LINE
5
4F
100
AcDbEntity
8
0
6
CONTINUOUS
62
7
370
-1
100
AcDbLine
10
13.1263110251
20
30.7851973984
11
12.9947117736
21
30.808401897
0
LINE
5
50
100
AcDbEntity
8
0
6
CONTINUOUS
62
7
370
-1
100
AcDbLine
10
11.7775448009
20
29.4116936134
11
11.7318408605
21
29.5372641577
0
LINE
5
51
100
AcDbEntity
8
0
6
CONTINUOUS
62
7
370
-1
100
AcDbLine
10
12.6112049672
20
32.6400151047
11
12.5253096561
21
32.5376490591
0
LINE
5
52
100
AcDbEntity
8
0
6
CONTINUOUS
62
7
370
-1
100
AcDbLine
10
9.398566461
20
31.7478252411
11
9.5301657125
21
31.7246207425
0
LINE
5
53
100
AcDbEntity
8
0
6
CONTINUOUS
62
7
370
-1
100
AcDbLine
10
10.7473326851
20
33.1213290261
11
10.7930366255
21
32.9957584818
0
LWPOLYLINE
5
54
100
AcDbEntity
8
0
6
CONTINUOUS
62
7
370
-1
100
AcDbPolyline
90
16
70
0
43
0
10
12.4107430395
20
30.8026435698
10
12.4306738538
20
30.7836375885
10
12.448153172
20
30.7639984125
10
12.463180994
20
30.7437260418
10
12.4757745926
20
30.7226563138
10
12.485916695
20
30.7009533911
10
12.4935554833
20
30.6791097613
10
12.4986610247
20
30.6572744423
10
12.5012632521
20
30.6352984162
10
12.5014001452
20
30.6132271171
10
12.4990775865
20
30.591035502
10
12.4942896937
20
30.5687486138
10
12.4870567995
20
30.5464870161
10
12.4773856816
20
30.5242908966
10
12.4652695623
20
30.5021200676
10
12.4507084417
20
30.479974529
0
LWPOLYLINE
5
55
100
AcDbEntity
8
0
6
CONTINUOUS
62
7
370
-1
100
AcDbPolyline
90
16
70
0
43
0
10
11.5436887457
20
30.7793720313
10
11.6368564712
20
30.8279834275
10
11.7231736528
20
30.8679695603
10
11.8026402906
20
30.8993304297
10
11.8745427258
20
30.9210411672
10
11.9395946171
20
30.9341266413
10
11.9999369403
20
30.9416614576
10
12.0555454126
20
30.9442129911
10
12.1064443169
20
30.9412138669
10
12.154847477
20
30.9340365658
10
12.2009943314
20
30.9232620052
10
12.2446454416
20
30.9083092677
10
12.2872963166
20
30.8888080826
10
12.3294454594
20
30.864635026
10
12.3705943671
20
30.8359135218
10
12.4107430395
20
30.8026435698
0
LWPOLYLINE
5
56
100
AcDbEntity
8
0
6
CONTINUOUS
62
7
370
-1
100
AcDbPolyline
90
10
70
0
43
0
10
11.9436203129
20
31.6892512865
10
11.8663644526
20
31.7193637855
10
11.7896923277
20
31.7457460508
10
11.7136039382
20
31.7683980823
10
11.6383545916
20
31.7872074372
10
11.5636889804
20
31.8022865585
10
11.4888411822
20
31.8139727745
10
11.4135558895
20
31.8223785281
10
11.3380884098
20
31.8273913765
10
11.262438743
20
31.8290113198
0
LWPOLYLINE
5
57
100
AcDbEntity
8
0
6
CONTINUOUS
62
7
370
-1
100
AcDbPolyline
90
10
70
0
43
0
10
12.1981104963
20
31.5671121715
10
12.1697530709
20
31.582105422
10
12.1414042757
20
31.596767303
10
12.1130641108
20
31.6110978146
10
12.0847171705
20
31.62512921
10
12.0563788605
20
31.638829236
10
12.0280953979
20
31.6521011326
10
11.9998821887
20
31.6649126466
10
11.9717238271
20
31.6772960312
10
11.9436203129
20
31.6892512865
0
LWPOLYLINE
5
58
100
AcDbEntity
8
0
6
CONTINUOUS
62
7
370
-1
100
AcDbPolyline
90
34
70
0
43
0
10
12.5394820591
20
31.8987971482
10
12.5609818307
20
31.8526660023
10
12.5798868858
20
31.8086672415
10
12.5961972243
20
31.7668008659
10
12.6098585161
20
31.7268483515
10
12.6209250913
20
31.6890282222
10
12.6295599407
20
31.6539960499
10
12.6356613457
20
31.6219782267
10
12.6393310249
20
31.5927483604
10
12.6410371243
20
31.5662828462
10
12.6407599618
20
31.5426906821
10
12.6385192194
20
31.52186287
10
12.6348420902
20
31.503448811
10
12.6298098819
20
31.4874952831
10
12.6233412866
20
31.4739555083
10
12.6157195737
20
31.4623385534
10
12.6070842106
20
31.4525944148
10
12.5972957298
20
31.4447730961
10
12.586218998
20
31.4385336748
10
12.5739781572
20
31.4337140618
10
12.5604490655
20
31.4304763462
10
12.5451241634
20
31.428965873
10
12.5279789675
20
31.429089019
10
12.5090379613
20
31.4309394073
10
12.4878670352
20
31.4349432517
10
12.4643184876
20
31.4412078563
10
12.4385400202
20
31.4496259169
10
12.4105406284
20
31.460301735
10
12.3802422873
20
31.473450299
10
12.3477230219
20
31.4888566205
10
12.313225903
20
31.505980035
10
12.2768319543
20
31.5246403209
10
12.238460152
20
31.5450176997
10
12.1981104963
20
31.5671121715
0
LWPOLYLINE
5
59
100
AcDbEntity
8
0
6
CONTINUOUS
62
7
370
-1
100
AcDbPolyline
90
13
70
0
43
0
10
12.9446895341
20
30.8841105546
10
12.9704276957
20
31.0120484438
10
12.987306904
20
31.1426301994
10
12.9953271588
20
31.2758558214
10
12.9949550972
20
31.4111904783
10
12.9857240822
20
31.5491690017
10
12.9662342027
20
31.6913958854
10
12.936754154
20
31.8383010213
10
12.8970152406
20
31.9894545176
10
12.8448114651
20
32.1451711923
10
12.7794074947
20
32.3055559847
10
12.7015386621
20
32.4705039555
10
12.6112049672
20
32.6400151047
0
LWPOLYLINE
5
5A
100
AcDbEntity
8
0
6
CONTINUOUS
62
7
370
-1
100
AcDbPolyline
90
13
70
0
43
0
10
11.7723953615
20
29.6184390166
10
11.8960619045
20
29.6601180594
10
12.0175886262
20
29.710791114
10
12.1369755267
20
29.7704581806
10
12.2539927469
20
29.8384477238
10
12.3688701458
20
29.915431279
10
12.4822973003
20
30.0034234517
10
12.5947808557
20
30.1024064907
10
12.7058141667
20
30.2123981473
10
12.8145668749
20
30.3354662805
10
12.9207621944
20
30.4723001765
10
13.0246769111
20
30.6222105492
10
13.1263110251
20
30.7851973984
0
LWPOLYLINE
5
5B
100
AcDbEntity
8
0
6
CONTINUOUS
62
7
370
-1
100
AcDbPolyline
90
13
70
0
43
0
10
12.4347329156
20
32.5321828577
10
12.3368045343
20
32.6184417042
10
12.2321570208
20
32.6983504051
10
12.1207903751
20
32.7719089605
10
12.0034010934
20
32.8392540743
10
11.8792926795
20
32.9002490424
10
11.7463756454
20
32.9544837534
10
11.6044120413
20
33.0024058503
10
11.453639817
20
33.04356769
10
11.2926833332
20
33.0762162316
10
11.1210840434
20
33.0997671279
10
10.939300494
20
33.1148047261
10
10.7473326851
20
33.1213290261
0
LWPOLYLINE
5
5C
100
AcDbEntity
8
0
6
CONTINUOUS
62
7
370
-1
100
AcDbPolyline
90
34
70
0
43
0
10
20.2789895353
20
30.6058125582
10
20.2574897637
20
30.6519437041
10
20.2385847087
20
30.6959424649
10
20.2222743701
20
30.7378088405
10
20.2086130784
20
30.7777613549
10
20.1975465031
20
30.8155814842
10
20.1889116538
20
30.8506136565
10
20.1828102487
20
30.8826314797
10
20.1791405695
20
30.911861346
10
20.1774344701
20
30.9383268602
10
20.1777116327
20
30.9619190243
10
20.179952375
20
30.9827468364
10
20.1836295043
20
31.0011608954
10
20.1886617126
20
31.0171144232
10
20.1951303078
20
31.0306541981
10
20.2027520207
20
31.042271153
10
20.2113873838
20
31.0520152916
10
20.2211758647
20
31.0598366103
10
20.2322525965
20
31.0660760316
10
20.2444934372
20
31.0708956446
10
20.2580225289
20
31.0741333602
10
20.2733474311
20
31.0756438334
10
20.2904926269
20
31.0755206874
10
20.3094336331
20
31.073670299
10
20.3306045592
20
31.0696664547
10
20.3541531068
20
31.0634018501
10
20.3799315743
20
31.0549837895
10
20.407930966
20
31.0443079714
10
20.4382293071
20
31.0311594074
10
20.4707485725
20
31.0157530859
10
20.5052456914
20
30.9986296714
10
20.5416396402
20
30.9799693855
10
20.5800114424
20
30.9595920067
10
20.6203610981
20
30.9374975349
0
LWPOLYLINE
5
5D
100
AcDbEntity
8
0
6
CONTINUOUS
62
7
370
-1
100
AcDbPolyline
90
10
70
0
43
0
10
20.8748512815
20
30.8153584199
10
20.9521071418
20
30.7852459209
10
21.0287792668
20
30.7588636556
10
21.1048676563
20
30.7362116241
10
21.1801170029
20
30.7174022691
10
21.254782614
20
30.7023231479
10
21.3296304122
20
30.6906369319
10
21.4049157049
20
30.6822311783
10
21.4803831846
20
30.6772183299
10
21.5560328514
20
30.6755983866
0
LWPOLYLINE
5
5E
100
AcDbEntity
8
0
6
CONTINUOUS
62
7
370
-1
100
AcDbPolyline
90
10
70
0
43
0
10
20.6203610981
20
30.9374975349
10
20.6487185236
20
30.9225042844
10
20.6770673187
20
30.9078424034
10
20.7054074836
20
30.8935118918
10
20.7337544239
20
30.8794804964
10
20.762092734
20
30.8657804704
10
20.7903761965
20
30.8525085738
10
20.8185894057
20
30.8396970598
10
20.8467477674
20
30.8273136752
10
20.8748512815
20
30.8153584199
0
LWPOLYLINE
5
5F
100
AcDbEntity
8
0
6
CONTINUOUS
62
7
370
-1
100
AcDbPolyline
90
16
70
0
43
0
10
21.2747828513
20
31.7252376762
10
21.1816151246
20
31.6766262795
10
21.0952979421
20
31.6366401463
10
21.0158313039
20
31.6052792767
10
20.9439288685
20
31.5835685391
10
20.8788769773
20
31.5704830651
10
20.8185346542
20
31.5629482488
10
20.7629261818
20
31.5603967153
10
20.7120272775
20
31.5633958395
10
20.6636241174
20
31.5705731406
10
20.6174772631
20
31.5813477012
10
20.5738261528
20
31.5963004387
10
20.5311752778
20
31.6158016238
10
20.489026135
20
31.6399746804
10
20.4478772274
20
31.6686961846
10
20.4077285549
20
31.7019661366
0
LWPOLYLINE
5
60
100
AcDbEntity
8
0
6
CONTINUOUS
62
7
370
-1
100
AcDbPolyline
90
16
70
0
43
0
10
20.4077285549
20
31.7019661366
10
20.3877977406
20
31.7209721179
10
20.3703184224
20
31.7406112939
10
20.3552906004
20
31.7608836646
10
20.3426970018
20
31.7819533926
10
20.3325548994
20
31.8036563153
10
20.3249161111
20
31.8254999451
10
20.3198105697
20
31.8473352641
10
20.3172083424
20
31.8693112902
10
20.3170714492
20
31.8913825892
10
20.3193940079
20
31.9135742044
10
20.3241819007
20
31.9358610926
10
20.3314147949
20
31.9581226903
10
20.3410859128
20
31.9803188098
10
20.3532020321
20
32.0024896388
10
20.3677631527
20
32.0246351774
0
LWPOLYLINE
5
61
100
AcDbEntity
8
0
6
CONTINUOUS
62
7
370
-1
100
AcDbPolyline
90
16
70
0
43
0
10
22.7043371479
20
30.7742306367
10
22.7242679622
20
30.7552246554
10
22.7417472803
20
30.7355854794
10
22.7567751024
20
30.7153131087
10
22.7693687009
20
30.6942433807
10
22.7795108034
20
30.672540458
10
22.7871495916
20
30.6506968282
10
22.7922551331
20
30.6288615092
10
22.7948573604
20
30.6068854831
10
22.7949942535
20
30.584814184
10
22.7926716949
20
30.5626225689
10
22.7878838021
20
30.5403356807
10
22.7806509079
20
30.518074083
10
22.77097979
20
30.4958779635
10
22.7588636707
20
30.4737071345
10
22.7443025501
20
30.4515615959
0
LWPOLYLINE
5
62
100
AcDbEntity
8
0
6
CONTINUOUS
62
7
370
-1
100
AcDbPolyline
90
16
70
0
43
0
10
21.8372828513
20
30.750959097
10
21.9304505781
20
30.7995704937
10
22.0167677606
20
30.839556627
10
22.0962343989
20
30.8709174966
10
22.1681368343
20
30.8926282342
10
22.2331887255
20
30.9057137082
10
22.2935310486
20
30.9132485245
10
22.349139521
20
30.915800058
10
22.4000384252
20
30.9128009338
10
22.4484415854
20
30.9056236327
10
22.4945884397
20
30.8948490721
10
22.5382395499
20
30.8798963346
10
22.580890425
20
30.8603951495
10
22.6230395678
20
30.8362220929
10
22.6641884754
20
30.8075005887
10
22.7043371479
20
30.7742306367
0
LWPOLYLINE
5
63
100
AcDbEntity
8
0
6
CONTINUOUS
62
7
370
-1
100
AcDbPolyline
90
10
70
0
43
0
10
22.2372144213
20
31.6608383534
10
22.1599585609
20
31.6909508524
10
22.083286436
20
31.7173331177
10
22.0071980465
20
31.7399851492
10
21.9319486999
20
31.7587945041
10
21.8572830888
20
31.7738736254
10
21.7824352906
20
31.7855598414
10
21.7071499979
20
31.793965595
10
21.6316825181
20
31.7989784434
10
21.5560328514
20
31.8005983866
0
LWPOLYLINE
5
64
100
AcDbEntity
8
0
6
CONTINUOUS
62
7
370
-1
100
AcDbPolyline
90
10
70
0
43
0
10
22.4917046047
20
31.5386992384
10
22.4633471792
20
31.5536924889
10
22.4349983841
20
31.5683543699
10
22.4066582192
20
31.5826848815
10
22.3783112789
20
31.5967162769
10
22.3499729688
20
31.6104163029
10
22.3216895063
20
31.6236881995
10
22.2934762971
20
31.6364997135
10
22.2653179354
20
31.6488830981
10
22.2372144213
20
31.6608383534
0
LWPOLYLINE
5
65
100
AcDbEntity
8
0
6
CONTINUOUS
62
7
370
-1
100
AcDbPolyline
90
34
70
0
43
0
10
22.8330761675
20
31.8703842151
10
22.8545759391
20
31.8242530692
10
22.8734809941
20
31.7802543084
10
22.8897913326
20
31.7383879328
10
22.9034526244
20
31.6984354183
10
22.9145191996
20
31.6606152891
10
22.923154049
20
31.6255831168
10
22.9292554541
20
31.5935652936
10
22.9329251333
20
31.5643354273
10
22.9346312327
20
31.5378699131
10
22.9343540701
20
31.514277749
10
22.9321133278
20
31.4934499369
10
22.9284361985
20
31.4750358779
10
22.9234039902
20
31.45908235
10
22.916935395
20
31.4455425752
10
22.9093136821
20
31.4339256203
10
22.9006783189
20
31.4241814817
10
22.8908898381
20
31.416360163
10
22.8798131063
20
31.4101207417
10
22.8675722656
20
31.4053011287
10
22.8540431738
20
31.4020634131
10
22.8387182717
20
31.4005529399
10
22.8215730759
20
31.4006760859
10
22.8026320697
20
31.4025264742
10
22.7814611436
20
31.4065303186
10
22.757912596
20
31.4127949232
10
22.7321341285
20
31.4212129838
10
22.7041347368
20
31.4318888019
10
22.6738363957
20
31.4450373659
10
22.6413171303
20
31.4604436874
10
22.6068200114
20
31.4775671019
10
22.5704260626
20
31.4962273878
10
22.5320542604
20
31.5166047666
10
22.4917046047
20
31.5386992384
0
CIRCLE
5
66
100
AcDbEntity
8
0
6
CONTINUOUS
62
7
370
-1
100
AcDbCircle
10
2.2861557621
20
31.8679966543
40
1.03
0
CIRCLE
5
67
100
AcDbEntity
8
0
6
CONTINUOUS
62
7
370
-1
100
AcDbCircle
10
2.2861557621
20
31.8679966543
40
0.203125
0
CIRCLE
5
68
100
AcDbEntity
8
0
6
CONTINUOUS
62
7
370
-1
100
AcDbCircle
10
2.9084474287
20
31.8679966543
40
0.046875
0
CIRCLE
5
69
100
AcDbEntity
8
0
6
CONTINUOUS
62
7
370
-1
100
AcDbCircle
10
1.6638640954
20
31.8679966543
40
0.046875
0
CIRCLE
5
6A
100
AcDbEntity
8
0
6
CONTINUOUS
62
7
370
-1
100
AcDbCircle
10
1.9203224287
20
31.8679966543
40
0.046875
0
CIRCLE
5
6B
100
AcDbEntity
8
0
6
CONTINUOUS
62
7
370
-1
100
AcDbCircle
10
2.6519890954
20
31.8679966543
40
0.046875
0
ARC
5
6C
100
AcDbEntity
8
0
6
CONTINUOUS
62
7
370
-1
100
AcDbCircle
10
11.262438743
20
31.2665113198
40
1.425
100
AcDbArc
50
206.340793093
51
326.498718057
0
ARC
5
6D
100
AcDbEntity
8
0
6
CONTINUOUS
62
7
370
-1
100
AcDbCircle
10
11.262438743
20
31.2665113198
40
1.425
100
AcDbArc
50
26.3407930932
51
146.498718057
0
ARC
5
6E
100
AcDbEntity
8
0
6
CONTINUOUS
62
7
370
-1
100
AcDbCircle
10
11.262438743
20
31.2665113198
40
0.5625
100
AcDbArc
50
90
51
119.999999639
0
ARC
5
6F
100
AcDbEntity
8
0
6
CONTINUOUS
62
7
370
-1
100
AcDbCircle
10
11.262438743
20
31.2665113198
40
0.5625
100
AcDbArc
50
270
51
300.000000293
0
CIRCLE
5
70
100
AcDbEntity
8
0
6
CONTINUOUS
62
7
370
-1
100
AcDbCircle
10
11.262438743
20
31.2665113198
40
0.25
0
CIRCLE
5
71
100
AcDbEntity
8
0
6
CONTINUOUS
62
7
370
-1
100
AcDbCircle
10
11.262438743
20
31.2665113198
40
0.203125
0
CIRCLE
5
72
100
AcDbEntity
8
0
6
CONTINUOUS
62
7
370
-1
100
AcDbCircle
10
10.6401470764
20
31.2665113198
40
0.09375
0
CIRCLE
5
73
100
AcDbEntity
8
0
6
CONTINUOUS
62
7
370
-1
100
AcDbCircle
10
11.8847304097
20
31.2665113198
40
0.09375
0
ARC
5
74
100
AcDbEntity
8
0
6
CONTINUOUS
62
7
370
-1
100
AcDbCircle
10
9.5193127014
20
31.6630702579
40
0.0625
100
AcDbArc
50
346.907090864
51
80
0
ARC
5
75
100
AcDbEntity
8
0
6
CONTINUOUS
62
7
370
-1
100
AcDbCircle
10
10.0474456077
20
29.9551993548
40
0.0625
100
AcDbArc
50
46.907090864
51
140
0
ARC
5
76
100
AcDbEntity
8
0
6
CONTINUOUS
62
7
370
-1
100
AcDbCircle
10
11.7905716493
20
29.5586404166
40
0.0625
100
AcDbArc
50
106.907090864
51
200
0
ARC
5
77
100
AcDbEntity
8
0
6
CONTINUOUS
62
7
370
-1
100
AcDbCircle
10
13.0055647847
20
30.8699523816
40
0.0625
100
AcDbArc
50
166.907090864
51
260
0
ARC
5
78
100
AcDbEntity
8
0
6
CONTINUOUS
62
7
370
-1
100
AcDbCircle
10
12.4774318784
20
32.5778232847
40
0.0625
100
AcDbArc
50
226.907090864
51
320
0
ARC
5
79
100
AcDbEntity
8
0
6
CONTINUOUS
62
7
370
-1
100
AcDbCircle
10
10.7343058368
20
32.9743822229
40
0.0625
100
AcDbArc
50
286.907090864
51
20
0
CIRCLE
5
7A
100
AcDbEntity
8
0
6
CONTINUOUS
62
7
370
-1
100
AcDbCircle
10
10.6401470764
20
31.2665113198
40
0.046875
0
CIRCLE
5
7B
100
AcDbEntity
8
0
6
CONTINUOUS
62
7
370
-1
100
AcDbCircle
10
11.8847304097
20
31.2665113198
40
0.046875
0
CIRCLE
5
7C
100
AcDbEntity
8
0
6
CONTINUOUS
62
7
370
-1
100
AcDbCircle
10
21.5560328514
20
31.2380983866
40
1.615
0
ARC
5
7D
100
AcDbEntity
8
0
6
CONTINUOUS
62
7
370
-1
100
AcDbCircle
10
21.5560328514
20
31.2380983866
40
1.425
100
AcDbArc
50
26.3407930932
51
146.498718057
0
ARC
5
7E
100
AcDbEntity
8
0
6
CONTINUOUS
62
7
370
-1
100
AcDbCircle
10
21.5560328514
20
31.2380983866
40
1.425
100
AcDbArc
50
206.340793093
51
326.498718057
0
ARC
5
7F
100
AcDbEntity
8
0
6
CONTINUOUS
62
7
370
-1
100
AcDbCircle
10
21.5560328514
20
31.2380983866
40
0.5625
100
AcDbArc
50
90
51
120.00000001
0
ARC
5
80
100
AcDbEntity
8
0
6
CONTINUOUS
62
7
370
-1
100
AcDbCircle
10
21.5560328514
20
31.2380983866
40
0.5625
100
AcDbArc
50
270
51
299.999999991
0
CIRCLE
5
81
100
AcDbEntity
8
0
6
CONTINUOUS
62
7
370
-1
100
AcDbCircle
10
21.5560328514
20
31.2380983866
40
0.203125
0
CIRCLE
5
82
100
AcDbEntity
8
0
6
CONTINUOUS
62
7
370
-1
100
AcDbCircle
10
20.9337411847
20
31.2380983866
40
0.046875
0
CIRCLE
5
83
100
AcDbEntity
8
0
6
CONTINUOUS
62
7
370
-1
100
AcDbCircle
10
22.1783245181
20
31.2380983866
40
0.046875
0
ENDSEC
0
SECTION
2
OBJECTS
0
DICTIONARY
5
C
330
0
100
AcDbDictionary
281
1
3
ACAD_GROUP
350
D
0
DICTIONARY
5
D
330
C
100
AcDbDictionary
281
1
0
ENDSEC
0
EOF
