999
dxfrw 0.5.10
0
SECTION
2
HEADER
9
$ACADVER
1
AC1021
9
$HANDSEED
5
20000
9
$DWGCODEPAGE
3
ANSI_1252
9
$INSBASE
10
0
20
0
30
0
9
$EXTMIN
10
0.4069620831
20
2.5784517036
30
0
9
$EXTMAX
10
10.8080953083
20
13.7063352051
30
0
9
$LIMMIN
10
0
20
0
9
$LIMMAX
10
44
20
34
9
$ORTHOMODE
70
0
9
$LTSCALE
40
2.42
9
$TEXTSTYLE
7
STANDARD
9
$CLAYER
8
0
9
$DIMASZ
40
0.1875
9
$DIMLFAC
40
1
9
$DIMSCALE
40
1
9
$DIMEXO
40
0.0625
9
$DIMEXE
40
0.125
9
$DIMTXT
40
0.15625
9
$DIMTSZ
40
0
9
$DIMAUNIT
70
0
9
$DIMADEC
70
0
9
$DIMLUNIT
70
2
9
$DIMSTYLE
2
Standard
9
$DIMGAP
40
0.09
9
$DIMTIH
70
0
9
$LUNITS
70
2
9
$LUPREC
70
4
9
$AUNITS
70
0
9
$AUPREC
70
2
9
$SPLINESEGS
70
8
9
$GRIDMODE
70
0
9
$SNAPSTYLE
70
0
9
$VIEWCTR
10
22
20
17
9
$PINSBASE
10
0
20
0
30
0
9
$PLIMMIN
10
0
20
0
9
$PLIMMAX
10
0.000504527018106
20
0.000713545354179
9
$INSUNITS
70
1
9
$PSVPSCALE
40
1
0
ENDSEC
0
SECTION
2
CLASSES
0
ENDSEC
0
SECTION
2
TABLES
0
TABLE
2
VPORT
5
8
330
0
100
AcDbSymbolTable
70
1
0
VPORT
5
31
330
2
100
AcDbSymbolTableRecord
100
AcDbViewportTableRecord
2
*ACTIVE
70
0
10
0
20
0
11
1
21
1
12
11.0696513761
22
8.35464220184
13
0
23
0
14
10
24
10
15
10
25
10
16
0
26
0
36
1
17
0
27
0
37
0
40
17.408
41
1.80504587156
42
50
43
0
44
0
50
0
51
0
71
0
72
100
73
1
74
3
75
0
76
0
77
0
78
0
281
0
65
1
110
0
120
0
130
0
111
1
121
0
131
0
112
0
122
1
132
0
79
0
146
0
348
10020
60
7
61
5
292
1
282
1
141
0
142
0
63
250
421
3358443
0
ENDTAB
0
TABLE
2
LTYPE
5
5
330
0
100
AcDbSymbolTable
70
4
0
LTYPE
5
14
330
5
100
AcDbSymbolTableRecord
100
AcDbLinetypeTableRecord
2
ByBlock
70
0
3

72
65
73
0
40
0
0
LTYPE
5
15
330
5
100
AcDbSymbolTableRecord
100
AcDbLinetypeTableRecord
2
ByLayer
70
0
3

72
65
73
0
40
0
0
LTYPE
5
16
330
5
100
AcDbSymbolTableRecord
100
AcDbLinetypeTableRecord
2
Continuous
70
0
3
Solid line
72
65
73
0
40
0
0
LTYPE
5
32
330
5
100
AcDbSymbolTableRecord
100
AcDbLinetypeTableRecord
2
DOT
70
0
3
Dot . . . . . . . . . . . . . . . . . . . . . .
72
65
73
2
40
6.35
49
0
74
0
49
-6.35
74
0
0
LTYPE
5
33
330
5
100
AcDbSymbolTableRecord
100
AcDbLinetypeTableRecord
2
DOT2
70
0
3
Dot (.5x) .....................................
72
65
73
2
40
3.175
49
0
74
0
49
-3.175
74
0
0
LTYPE
5
34
330
5
100
AcDbSymbolTableRecord
100
AcDbLinetypeTableRecord
2
DOTX2
70
0
3
Dot (2x) .  .  .  .  .  .  .  .  .  .  .  .  .
72
65
73
2
40
12.7
49
0
74
0
49
-12.7
74
0
0
LTYPE
5
35
330
5
100
AcDbSymbolTableRecord
100
AcDbLinetypeTableRecord
2
DASHED
70
0
3
Dot . . . . . . . . . . . . . . . . . . . . . .
72
65
73
2
40
19.05
49
12.7
74
0
49
-6.35
74
0
0
LTYPE
5
36
330
5
100
AcDbSymbolTableRecord
100
AcDbLinetypeTableRecord
2
DASHED2
70
0
3
Dashed (.5x) _ _ _ _ _ _ _ _ _ _ _ _ _ _ _ _ _
72
65
73
2
40
9.525
49
6.35
74
0
49
-3.175
74
0
0
LTYPE
5
37
330
5
100
AcDbSymbolTableRecord
100
AcDbLinetypeTableRecord
2
DASHEDX2
70
0
3
Dashed (2x) ____  ____  ____  ____  ____  ___
72
65
73
2
40
38.1
49
25.4
74
0
49
-12.7
74
0
0
LTYPE
5
38
330
5
100
AcDbSymbolTableRecord
100
AcDbLinetypeTableRecord
2
DASHDOT
70
0
3
Dash dot __ . __ . __ . __ . __ . __ . __ . __
72
65
73
4
40
25.4
49
12.7
74
0
49
-6.35
74
0
49
0
74
0
49
-6.35
74
0
0
LTYPE
5
39
330
5
100
AcDbSymbolTableRecord
100
AcDbLinetypeTableRecord
2
DASHDOT2
70
0
3
Dash dot (.5x) _._._._._._._._._._._._._._._.
72
65
73
4
40
12.7
49
6.35
74
0
49
-3.175
74
0
49
0
74
0
49
-3.175
74
0
0
LTYPE
5
3A
330
5
100
AcDbSymbolTableRecord
100
AcDbLinetypeTableRecord
2
DASHDOTX2
70
0
3
Dash dot (2x) ____  .  ____  .  ____  .  ___
72
65
73
4
40
50.8
49
25.4
74
0
49
-12.7
74
0
49
0
74
0
49
-12.7
74
0
0
LTYPE
5
3B
330
5
100
AcDbSymbolTableRecord
100
AcDbLinetypeTableRecord
2
DIVIDE
70
0
3
Divide ____ . . ____ . . ____ . . ____ . . ____
72
65
73
6
40
31.75
49
12.7
74
0
49
-6.35
74
0
49
0
74
0
49
-6.35
74
0
49
0
74
0
49
-6.35
74
0
0
LTYPE
5
3C
330
5
100
AcDbSymbolTableRecord
100
AcDbLinetypeTableRecord
2
DIVIDE2
70
0
3
Divide (.5x) __..__..__..__..__..__..__..__.._
72
65
73
6
40
15.875
49
6.35
74
0
49
-3.175
74
0
49
0
74
0
49
-3.175
74
0
49
0
74
0
49
-3.175
74
0
0
LTYPE
5
3D
330
5
100
AcDbSymbolTableRecord
100
AcDbLinetypeTableRecord
2
DIVIDEX2
70
0
3
Divide (2x) ________  .  .  ________  .  .  _
72
65
73
6
40
63.5
49
25.4
74
0
49
-12.7
74
0
49
0
74
0
49
-12.7
74
0
49
0
74
0
49
-12.7
74
0
0
LTYPE
5
3E
330
5
100
AcDbSymbolTableRecord
100
AcDbLinetypeTableRecord
2
BORDER
70
0
3
Border __ __ . __ __ . __ __ . __ __ . __ __ .
72
65
73
6
40
44.45
49
12.7
74
0
49
-6.35
74
0
49
12.7
74
0
49
-6.35
74
0
49
0
74
0
49
-6.35
74
0
0
LTYPE
5
3F
330
5
100
AcDbSymbolTableRecord
100
AcDbLinetypeTableRecord
2
BORDER2
70
0
3
Border (.5x) __.__.__.__.__.__.__.__.__.__.__.
72
65
73
6
40
22.225
49
6.35
74
0
49
-3.175
74
0
49
6.35
74
0
49
-3.175
74
0
49
0
74
0
49
-3.175
74
0
0
LTYPE
5
40
330
5
100
AcDbSymbolTableRecord
100
AcDbLinetypeTableRecord
2
BORDERX2
70
0
3
Border (2x) ____  ____  .  ____  ____  .  ___
72
65
73
6
40
88.9
49
25.4
74
0
49
-12.7
74
0
49
25.4
74
0
49
-12.7
74
0
49
0
74
0
49
-12.7
74
0
0
LTYPE
5
41
330
5
100
AcDbSymbolTableRecord
100
AcDbLinetypeTableRecord
2
CENTER
70
0
3
Center ____ _ ____ _ ____ _ ____ _ ____ _ ____
72
65
73
4
40
50.8
49
31.75
74
0
49
-6.35
74
0
49
6.35
74
0
49
-6.35
74
0
0
LTYPE
5
42
330
5
100
AcDbSymbolTableRecord
100
AcDbLinetypeTableRecord
2
CENTER2
70
0
3
Center (.5x) ___ _ ___ _ ___ _ ___ _ ___ _ ___
72
65
73
4
40
28.575
49
19.05
74
0
49
-3.175
74
0
49
3.175
74
0
49
-3.175
74
0
0
LTYPE
5
43
330
5
100
AcDbSymbolTableRecord
100
AcDbLinetypeTableRecord
2
CENTERX2
70
0
3
Center (2x) ________  __  ________  __  _____
72
65
73
4
40
101.6
49
63.5
74
0
49
-12.7
74
0
49
12.7
74
0
49
-12.7
74
0
0
ENDTAB
0
TABLE
2
LAYER
5
2
330
0
100
AcDbSymbolTable
70
1
0
LAYER
5
10
330
2
100
AcDbSymbolTableRecord
100
AcDbLayerTableRecord
2
0
70
0
62
7
6
CONTINUOUS
370
-3
390
F
0
ENDTAB
0
TABLE
2
STYLE
5
3
330
0
100
AcDbSymbolTable
70
3
0
STYLE
5
44
330
2
100
AcDbSymbolTableRecord
100
AcDbTextStyleTableRecord
2
Standard
70
0
40
0
41
1
50
0
71
0
42
1
3
txt
4

0
ENDTAB
0
TABLE
2
VIEW
5
6
330
0
100
AcDbSymbolTable
70
0
0
ENDTAB
0
TABLE
2
UCS
5
7
330
0
100
AcDbSymbolTable
70
0
0
ENDTAB
0
TABLE
2
APPID
5
9
330
0
100
AcDbSymbolTable
70
1
0
APPID
5
12
330
9
100
AcDbSymbolTableRecord
100
AcDbRegAppTableRecord
2
ACAD
70
0
0
ENDTAB
0
TABLE
2
DIMSTYLE
5
A
330
0
100
AcDbSymbolTable
70
1
100
AcDbDimStyleTable
71
1
0
DIMSTYLE
105
45
330
A
100
AcDbSymbolTableRecord
100
AcDbDimStyleTableRecord
2
Standard
70
0
40
1
41
0.1875
42
0.0625
43
0.38
44
0.125
45
0
46
0
47
0
48
0
140
0.15625
141
0.09
142
0
143
25.4
144
1
145
0
146
1
147
0.09
148
0
71
0
72
0
73
0
74
1
75
0
76
0
77
0
78
0
79
0
170
0
171
2
172
0
173
0
174
0
175
0
176
0
177
0
178
0
179
0
271
4
272
4
273
2
274
2
275
0
276
0
277
2
278
46
279
0
280
0
281
0
282
0
283
1
284
0
285
0
286
0
288
0
289
3
340
Standard
341

371
-2
372
-2
0
ENDTAB
0
TABLE
2
BLOCK_RECORD
5
1
330
0
100
AcDbSymbolTable
70
2
0
BLOCK_RECORD
5
1F
330
1
100
AcDbSymbolTableRecord
100
AcDbBlockTableRecord
2
*Model_Space
70
0
280
1
281
0
0
BLOCK_RECORD
5
1E
330
1
100
AcDbSymbolTableRecord
100
AcDbBlockTableRecord
2
*Paper_Space
70
0
280
1
281
0
0
ENDTAB
0
ENDSEC
0
SECTION
2
BLOCKS
0
BLOCK
5
20
330
1F
100
AcDbEntity
8
0
100
AcDbBlockBegin
2
*Model_Space
70
0
10
0
20
0
30
0
3
*Model_Space
1

0
ENDBLK
5
21
330
1F
100
AcDbEntity
8
0
100
AcDbBlockEnd
0
BLOCK
5
1C
330
1B
100
AcDbEntity
8
0
100
AcDbBlockBegin
2
*Paper_Space
70
0
10
0
20
0
30
0
3
*Paper_Space
1

0
ENDBLK
5
1D
330
1F
100
AcDbEntity
8
0
100
AcDbBlockEnd
0
ENDSEC
0
SECTION
2
ENTITIES
0
LWPOLYLINE
5
46
100
AcDbEntity
8
0
6
CONTINUOUS
62
5
370
-1
100
AcDbPolyline
90
6
70
0
43
0
10
5.3367654114
20
5.4529702148
10
5.3211402283
20
5.4790119629
10
5.3289528198
20
5.4920328369
10
5.3289528198
20
5.5310947876
10
5.3211402283
20
5.5441156616
10
5.2664527588
20
5.5441156616
0
LINE
5
47
100
AcDbEntity
8
0
6
CONTINUOUS
62
5
370
-1
100
AcDbLine
10
3.0233423462
20
13.6218519287
11
3.0233423462
21
13.5176862793
0
LINE
5
48
100
AcDbEntity
8
0
6
CONTINUOUS
62
5
370
-1
100
AcDbLine
10
3.0936546631
20
13.5176862793
11
3.0936546631
21
13.6218519287
0
LINE
5
49
100
AcDbEntity
8
0
6
CONTINUOUS
62
5
370
-1
100
AcDbLine
10
3.3670923462
20
13.6739354248
11
3.3670923462
21
13.5176862793
0
LWPOLYLINE
5
4A
100
AcDbEntity
8
0
6
CONTINUOUS
62
5
370
-1
100
AcDbPolyline
90
3
70
0
43
0
10
3.7742652283
20
5.5441156616
10
3.7742652283
20
5.3878658447
10
3.8367652893
20
5.3878658447
0
LWPOLYLINE
5
4B
100
AcDbEntity
8
0
6
CONTINUOUS
62
5
370
-1
100
AcDbPolyline
90
5
70
0
43
0
10
4.0164528809
20
5.4920328369
10
4.0320777283
20
5.3878658447
10
4.0555155029
20
5.4920328369
10
4.0711403503
20
5.3878658447
10
4.0945777893
20
5.4920328369
0
LINE
5
4C
100
AcDbEntity
8
0
6
CONTINUOUS
62
5
370
-1
100
AcDbLine
10
4.2820779724
20
5.3878658447
11
4.2820779724
21
5.4920328369
0
LWPOLYLINE
5
4D
100
AcDbEntity
8
0
6
CONTINUOUS
62
5
370
-1
100
AcDbPolyline
90
3
70
0
43
0
10
4.5242652893
20
5.3878658447
10
4.5242652893
20
5.5441156616
10
4.5867653503
20
5.5441156616
0
LINE
5
4E
100
AcDbEntity
8
0
6
CONTINUOUS
62
5
370
-1
100
AcDbLine
10
4.6570780029
20
5.3878658447
11
4.6570780029
21
5.4920328369
0
LINE
5
4F
100
AcDbEntity
8
0
6
CONTINUOUS
62
5
370
-1
100
AcDbLine
10
4.8367652588
20
5.4920328369
11
4.8367652588
21
5.3878658447
0
LINE
5
50
100
AcDbEntity
8
0
6
CONTINUOUS
62
5
370
-1
100
AcDbLine
10
4.8836404724
20
5.4920328369
11
4.8836404724
21
5.3878658447
0
LWPOLYLINE
5
51
100
AcDbEntity
8
0
6
CONTINUOUS
62
5
370
-1
100
AcDbPolyline
90
3
70
0
43
0
10
5.2664527588
20
5.5441156616
10
5.2664527588
20
5.3878658447
10
5.3211402283
20
5.3878658447
0
LINE
5
52
100
AcDbEntity
8
0
6
CONTINUOUS
62
5
370
-1
100
AcDbLine
10
6.0537382813
20
13.6542530518
11
6.0537382813
21
13.5500860596
0
LINE
5
53
100
AcDbEntity
8
0
6
CONTINUOUS
62
5
370
-1
100
AcDbLine
10
6.1240505981
20
13.5500860596
11
6.1240505981
21
13.6542530518
0
LWPOLYLINE
5
54
100
AcDbEntity
8
0
6
CONTINUOUS
62
5
370
-1
100
AcDbPolyline
90
3
70
0
43
0
10
6.3662385864
20
13.7063352051
10
6.3662385864
20
13.5500860596
10
6.4287386475
20
13.5500860596
0
LINE
5
55
100
AcDbEntity
8
0
6
CONTINUOUS
62
5
370
-1
100
AcDbLine
10
6.5224884033
20
13.7063352051
11
6.5224884033
21
13.6933143311
0
LINE
5
56
100
AcDbEntity
8
0
6
CONTINUOUS
62
5
370
-1
100
AcDbLine
10
6.5224884033
20
13.6542530518
11
6.5224884033
21
13.5500860596
0
LINE
5
57
100
AcDbEntity
8
0
6
CONTINUOUS
62
5
370
-1
100
AcDbLine
10
6.6240510864
20
13.5500860596
11
6.6240510864
21
13.6542530518
0
LINE
5
58
100
AcDbEntity
8
0
6
CONTINUOUS
62
5
370
-1
100
AcDbLine
10
6.7490505371
20
13.5500860596
11
6.7490505371
21
13.7063352051
0
LINE
5
59
100
AcDbEntity
8
0
6
CONTINUOUS
62
5
370
-1
100
AcDbLine
10
6.7646757202
20
13.6151904297
11
6.7959260864
21
13.5500860596
0
LWPOLYLINE
5
5A
100
AcDbEntity
8
0
6
CONTINUOUS
62
5
370
-1
100
AcDbPolyline
90
12
70
0
43
0
10
6.9834255981
20
13.7063352051
10
6.9834255981
20
13.5500860596
10
7.0381134033
20
13.5500860596
10
7.0459256592
20
13.5631069336
10
7.0537385864
20
13.5761278076
10
7.0537385864
20
13.6151904297
10
7.0459256592
20
13.6282113037
10
7.0381134033
20
13.6412321777
10
7.0459256592
20
13.6542530518
10
7.0459256592
20
13.6933143311
10
7.0381134033
20
13.7063352051
10
6.9834255981
20
13.7063352051
0
LINE
5
5B
100
AcDbEntity
8
0
6
CONTINUOUS
62
5
370
-1
100
AcDbLine
10
7.3662382202
20
13.6542530518
11
7.3662382202
21
13.4980025635
0
LINE
5
5C
100
AcDbEntity
8
0
6
CONTINUOUS
62
5
370
-1
100
AcDbLine
10
7.5537384033
20
13.6542530518
11
7.5537384033
21
13.5500860596
0
LINE
5
5D
100
AcDbEntity
8
0
6
CONTINUOUS
62
5
370
-1
100
AcDbLine
10
7.8740509644
20
13.5500860596
11
7.8740509644
21
13.6542530518
0
LWPOLYLINE
5
5E
100
AcDbEntity
8
0
6
CONTINUOUS
62
5
370
-1
100
AcDbPolyline
90
11
70
0
43
0
10
2.8905299683
20
13.5437280273
10
2.8827173767
20
13.5307071533
10
2.8670921936
20
13.5176862793
10
2.8514673462
20
13.5307071533
10
2.8358421631
20
13.5567489014
10
2.8358421631
20
13.5827893066
10
2.8514673462
20
13.6088310547
10
2.8670921936
20
13.6218519287
10
2.8827173767
20
13.6088310547
10
2.8905299683
20
13.5827893066
10
2.8358421631
20
13.5827893066
0
LWPOLYLINE
5
5F
100
AcDbEntity
8
0
6
CONTINUOUS
62
5
370
-1
100
AcDbPolyline
90
10
70
0
43
0
10
3.0233423462
20
13.5567489014
10
3.0077171631
20
13.5307071533
10
2.9920923157
20
13.5176862793
10
2.9764674683
20
13.5307071533
10
2.9608422852
20
13.5567489014
10
2.9608422852
20
13.5827893066
10
2.9764674683
20
13.6088310547
10
2.9920923157
20
13.6218519287
10
3.0077171631
20
13.6088310547
10
3.0233423462
20
13.5827893066
0
LWPOLYLINE
5
60
100
AcDbEntity
8
0
6
CONTINUOUS
62
5
370
-1
100
AcDbPolyline
90
4
70
0
43
0
10
3.0936546631
20
13.5958101807
10
3.1092798462
20
13.6218519287
10
3.1249046936
20
13.6218519287
10
3.1327172852
20
13.6088310547
0
LWPOLYLINE
5
61
100
AcDbEntity
8
0
6
CONTINUOUS
62
5
370
-1
100
AcDbPolyline
90
9
70
0
43
0
10
7.3037381592
20
13.680293457
10
7.2959259033
20
13.6933143311
10
7.2803007202
20
13.7063352051
10
7.2646755371
20
13.7063352051
10
7.2490510254
20
13.6933143311
10
7.2412380981
20
13.680293457
10
7.2412380981
20
13.667272583
10
7.2490510254
20
13.6542530518
10
7.2646755371
20
13.6412321777
0
LINE
5
62
100
AcDbEntity
8
0
6
CONTINUOUS
62
5
370
-1
100
AcDbLine
10
9.2652944946
20
13.6534997559
11
9.2652944946
21
13.5493327637
0
LINE
5
63
100
AcDbEntity
8
0
6
CONTINUOUS
62
5
370
-1
100
AcDbLine
10
9.3356068115
20
13.5493327637
11
9.3356068115
21
13.6534997559
0
LWPOLYLINE
5
64
100
AcDbEntity
8
0
6
CONTINUOUS
62
5
370
-1
100
AcDbPolyline
90
3
70
0
43
0
10
9.5777947998
20
13.705583252
10
9.5777947998
20
13.5493327637
10
9.6402948608
20
13.5493327637
0
LINE
5
65
100
AcDbEntity
8
0
6
CONTINUOUS
62
5
370
-1
100
AcDbLine
10
9.7340446167
20
13.705583252
11
9.7340446167
21
13.6925623779
0
LINE
5
66
100
AcDbEntity
8
0
6
CONTINUOUS
62
5
370
-1
100
AcDbLine
10
9.7340446167
20
13.6534997559
11
9.7340446167
21
13.5493327637
0
LINE
5
67
100
AcDbEntity
8
0
6
CONTINUOUS
62
5
370
-1
100
AcDbLine
10
9.8356072998
20
13.5493327637
11
9.8356072998
21
13.6534997559
0
LINE
5
68
100
AcDbEntity
8
0
6
CONTINUOUS
62
5
370
-1
100
AcDbLine
10
9.9762319336
20
13.6144371338
11
10.0074822998
21
13.5493327637
0
LINE
5
69
100
AcDbEntity
8
0
6
CONTINUOUS
62
5
370
-1
100
AcDbLine
10
9.9606074219
20
13.5493327637
11
9.9606074219
21
13.705583252
0
LWPOLYLINE
5
6A
100
AcDbEntity
8
0
6
CONTINUOUS
62
5
370
-1
100
AcDbPolyline
90
11
70
0
43
0
10
5.9209259033
20
13.5761278076
10
5.9131136475
20
13.5631069336
10
5.8974884644
20
13.5500860596
10
5.8818632813
20
13.5631069336
10
5.8662380981
20
13.5891486816
10
5.8662380981
20
13.6151904297
10
5.8818632813
20
13.6412321777
10
5.8974884644
20
13.6542530518
10
5.9131136475
20
13.6412321777
10
5.9209259033
20
13.6151904297
10
5.8662380981
20
13.6151904297
0
LWPOLYLINE
5
6B
100
AcDbEntity
8
0
6
CONTINUOUS
62
5
370
-1
100
AcDbPolyline
90
10
70
0
43
0
10
6.0537382813
20
13.5891486816
10
6.0381130981
20
13.5631069336
10
6.0224885864
20
13.5500860596
10
6.0068634033
20
13.5631069336
10
5.9912382202
20
13.5891486816
10
5.9912382202
20
13.6151904297
10
6.0068634033
20
13.6412321777
10
6.0224885864
20
13.6542530518
10
6.0381130981
20
13.6412321777
10
6.0537382813
20
13.6151904297
0
LWPOLYLINE
5
6C
100
AcDbEntity
8
0
6
CONTINUOUS
62
5
370
-1
100
AcDbPolyline
90
4
70
0
43
0
10
6.1240505981
20
13.6282113037
10
6.1396757813
20
13.6542530518
10
6.1553009644
20
13.6542530518
10
6.1631132202
20
13.6412321777
0
LWPOLYLINE
5
6D
100
AcDbEntity
8
0
6
CONTINUOUS
62
5
370
-1
100
AcDbPolyline
90
5
70
0
43
0
10
6.6240510864
20
13.6282113037
10
6.6396755981
20
13.6542530518
10
6.6553007813
20
13.6542530518
10
6.6709259644
20
13.6282113037
10
6.6709259644
20
13.5500860596
0
LWPOLYLINE
5
6E
100
AcDbEntity
8
0
6
CONTINUOUS
62
5
370
-1
100
AcDbPolyline
90
10
70
0
43
0
10
7.3662382202
20
13.6151904297
10
7.3818634033
20
13.6412321777
10
7.3974885864
20
13.6542530518
10
7.4131130981
20
13.6412321777
10
7.4287382813
20
13.6151904297
10
7.4287382813
20
13.5891486816
10
7.4131130981
20
13.5631069336
10
7.3974885864
20
13.5500860596
10
7.3818634033
20
13.5500860596
10
7.3662382202
20
13.5891486816
0
LWPOLYLINE
5
6F
100
AcDbEntity
8
0
6
CONTINUOUS
62
5
370
-1
100
AcDbPolyline
90
10
70
0
43
0
10
7.5537384033
20
13.5891486816
10
7.5381132202
20
13.5631069336
10
7.5224880371
20
13.5500860596
10
7.5068635254
20
13.5631069336
10
7.4912383423
20
13.5891486816
10
7.4912383423
20
13.6151904297
10
7.5068635254
20
13.6412321777
10
7.5224880371
20
13.6542530518
10
7.5381132202
20
13.6412321777
10
7.5537384033
20
13.6151904297
0
LINE
5
70
100
AcDbEntity
8
0
6
CONTINUOUS
62
5
370
-1
100
AcDbLine
10
4.5242652893
20
5.4659910889
11
4.5633279114
21
5.4659910889
0
LINE
5
71
100
AcDbEntity
8
0
6
CONTINUOUS
62
5
370
-1
100
AcDbLine
10
5.2664527588
20
5.4790119629
11
5.3211402283
21
5.4790119629
0
LWPOLYLINE
5
72
100
AcDbEntity
8
0
6
CONTINUOUS
62
5
370
-1
100
AcDbPolyline
90
10
70
0
43
0
10
7.2646755371
20
13.6412321777
10
7.2959259033
20
13.6151904297
10
7.3037381592
20
13.6021695557
10
7.3037381592
20
13.5761278076
10
7.2959259033
20
13.5631069336
10
7.2803007202
20
13.5500860596
10
7.2646755371
20
13.5500860596
10
7.2490510254
20
13.5631069336
10
7.2412380981
20
13.5761278076
10
7.2334258423
20
13.5891486816
0
LWPOLYLINE
5
73
100
AcDbEntity
8
0
6
CONTINUOUS
62
5
370
-1
100
AcDbPolyline
90
11
70
0
43
0
10
7.7959257202
20
13.5761278076
10
7.7881134644
20
13.5631069336
10
7.7724882813
20
13.5500860596
10
7.7568630981
20
13.5631069336
10
7.7412385864
20
13.5891486816
10
7.7412385864
20
13.6151904297
10
7.7568630981
20
13.6412321777
10
7.7724882813
20
13.6542530518
10
7.7881134644
20
13.6412321777
10
7.7959257202
20
13.6151904297
10
7.7412385864
20
13.6151904297
0
LWPOLYLINE
5
74
100
AcDbEntity
8
0
6
CONTINUOUS
62
5
370
-1
100
AcDbPolyline
90
4
70
0
43
0
10
7.8740509644
20
13.6282113037
10
7.8896761475
20
13.6542530518
10
7.9053006592
20
13.6542530518
10
7.9131135864
20
13.6412321777
0
LWPOLYLINE
5
75
100
AcDbEntity
8
0
6
CONTINUOUS
62
5
370
-1
100
AcDbPolyline
90
11
70
0
43
0
10
3.9617654114
20
5.4269284668
10
3.9461402283
20
5.4008867188
10
3.9305153809
20
5.3878658447
10
3.9148901978
20
5.4008867188
10
3.8992653503
20
5.4269284668
10
3.8992653503
20
5.4529702148
10
3.9148901978
20
5.4790119629
10
3.9305153809
20
5.4920328369
10
3.9461402283
20
5.4790119629
10
3.9617654114
20
5.4529702148
10
3.9617654114
20
5.4269284668
0
LWPOLYLINE
5
76
100
AcDbEntity
8
0
6
CONTINUOUS
62
5
370
-1
100
AcDbPolyline
90
11
70
0
43
0
10
4.2039527283
20
5.4139075928
10
4.1961404724
20
5.4008867188
10
4.1805152893
20
5.3878658447
10
4.1648904419
20
5.4008867188
10
4.1492652588
20
5.4269284668
10
4.1492652588
20
5.4529702148
10
4.1648904419
20
5.4790119629
10
4.1805152893
20
5.4920328369
10
4.1961404724
20
5.4790119629
10
4.2039527283
20
5.4529702148
10
4.1492652588
20
5.4529702148
0
LWPOLYLINE
5
77
100
AcDbEntity
8
0
6
CONTINUOUS
62
5
370
-1
100
AcDbPolyline
90
11
70
0
43
0
10
9.1324821167
20
13.5753745117
10
9.1246698608
20
13.5623536377
10
9.1090446777
20
13.5493327637
10
9.0934194946
20
13.5623536377
10
9.0777943115
20
13.5883953857
10
9.0777943115
20
13.6144371338
10
9.0934194946
20
13.6404788818
10
9.1090446777
20
13.6534997559
10
9.1246698608
20
13.6404788818
10
9.1324821167
20
13.6144371338
10
9.0777943115
20
13.6144371338
0
LWPOLYLINE
5
78
100
AcDbEntity
8
0
6
CONTINUOUS
62
5
370
-1
100
AcDbPolyline
90
4
70
0
43
0
10
4.2820779724
20
5.4659910889
10
4.2977028198
20
5.4920328369
10
4.3133280029
20
5.4920328369
10
4.3211402588
20
5.4790119629
0
LWPOLYLINE
5
79
100
AcDbEntity
8
0
6
CONTINUOUS
62
5
370
-1
100
AcDbPolyline
90
10
70
0
43
0
10
9.2652944946
20
13.5883953857
10
9.2496693115
20
13.5623536377
10
9.2340447998
20
13.5493327637
10
9.2184196167
20
13.5623536377
10
9.2027944336
20
13.5883953857
10
9.2027944336
20
13.6144371338
10
9.2184196167
20
13.6404788818
10
9.2340447998
20
13.6534997559
10
9.2496693115
20
13.6404788818
10
9.2652944946
20
13.6144371338
0
LWPOLYLINE
5
7A
100
AcDbEntity
8
0
6
CONTINUOUS
62
5
370
-1
100
AcDbPolyline
90
4
70
0
43
0
10
9.3356068115
20
13.6274580078
10
9.3512319946
20
13.6534997559
10
9.3668571777
20
13.6534997559
10
9.3746694336
20
13.6404788818
0
LINE
5
7B
100
AcDbEntity
8
0
6
CONTINUOUS
62
5
370
-1
100
AcDbLine
10
6.7490505371
20
13.6021695557
11
6.7959260864
21
13.6542530518
0
LWPOLYLINE
5
7C
100
AcDbEntity
8
0
6
CONTINUOUS
62
5
370
-1
100
AcDbPolyline
90
4
70
0
43
0
10
4.6570780029
20
5.4659910889
10
4.6727028503
20
5.4920328369
10
4.6883276978
20
5.4920328369
10
4.6961402893
20
5.4790119629
0
LWPOLYLINE
5
7D
100
AcDbEntity
8
0
6
CONTINUOUS
62
5
370
-1
100
AcDbPolyline
90
10
70
0
43
0
10
4.8367652588
20
5.4269284668
10
4.8211404114
20
5.4008867188
10
4.8055152283
20
5.3878658447
10
4.7898903809
20
5.4008867188
10
4.7742651978
20
5.4269284668
10
4.7742651978
20
5.4529702148
10
4.7898903809
20
5.4790119629
10
4.8055152283
20
5.4920328369
10
4.8211404114
20
5.4790119629
10
4.8367652588
20
5.4529702148
0
LWPOLYLINE
5
7E
100
AcDbEntity
8
0
6
CONTINUOUS
62
5
370
-1
100
AcDbPolyline
90
5
70
0
43
0
10
4.8836404724
20
5.4659910889
10
4.8992653198
20
5.4920328369
10
4.9148905029
20
5.4920328369
10
4.9305153503
20
5.4659910889
10
4.9305153503
20
5.3878658447
0
LWPOLYLINE
5
7F
100
AcDbEntity
8
0
6
CONTINUOUS
62
5
370
-1
100
AcDbPolyline
90
5
70
0
43
0
10
4.9305153503
20
5.4659910889
10
4.9461401978
20
5.4920328369
10
4.9617653809
20
5.4920328369
10
4.9773902283
20
5.4659910889
10
4.9773902283
20
5.3878658447
0
LWPOLYLINE
5
80
100
AcDbEntity
8
0
6
CONTINUOUS
62
5
370
-1
100
AcDbPolyline
90
5
70
0
43
0
10
9.8356072998
20
13.6274580078
10
9.8512318115
20
13.6534997559
10
9.8668569946
20
13.6534997559
10
9.8824821777
20
13.6274580078
10
9.8824821777
20
13.5493327637
0
LWPOLYLINE
5
81
100
AcDbEntity
8
0
6
CONTINUOUS
62
5
370
-1
100
AcDbPolyline
90
11
70
0
43
0
10
5.0789529114
20
5.4139075928
10
5.0711403198
20
5.4008867188
10
5.0555154724
20
5.3878658447
10
5.0398902893
20
5.4008867188
10
5.0242654419
20
5.4269284668
10
5.0242654419
20
5.4529702148
10
5.0398902893
20
5.4790119629
10
5.0555154724
20
5.4920328369
10
5.0711403198
20
5.4790119629
10
5.0789529114
20
5.4529702148
10
5.0242654419
20
5.4529702148
0
LWPOLYLINE
5
82
100
AcDbEntity
8
0
6
CONTINUOUS
62
5
370
-1
100
AcDbPolyline
90
3
70
0
43
0
10
5.3211402283
20
5.3878658447
10
5.3367654114
20
5.4139075928
10
5.3367654114
20
5.4529702148
0
LINE
5
83
100
AcDbEntity
8
0
6
CONTINUOUS
62
5
370
-1
100
AcDbLine
10
9.9606074219
20
13.6014162598
11
10.0074822998
21
13.6534997559
0
LWPOLYLINE
5
84
100
AcDbEntity
8
0
6
CONTINUOUS
62
5
370
-1
100
AcDbPolyline
90
8
70
0
43
0
10
7.6631133423
20
13.5631069336
10
7.6474881592
20
13.5500860596
10
7.6318636475
20
13.5631069336
10
7.6162384644
20
13.5891486816
10
7.6162384644
20
13.6151904297
10
7.6318636475
20
13.6412321777
10
7.6474881592
20
13.6542530518
10
7.6631133423
20
13.6412321777
0
LWPOLYLINE
5
85
100
AcDbEntity
8
0
6
CONTINUOUS
62
5
370
-1
100
AcDbPolyline
90
4
70
0
43
0
10
10.2652947998
20
13.5493327637
10
10.2027947388
20
13.5493327637
10
10.2027947388
20
13.705583252
10
10.2652947998
20
13.705583252
0
LWPOLYLINE
5
86
100
AcDbEntity
8
0
6
CONTINUOUS
62
5
370
-1
100
AcDbPolyline
90
17
70
0
43
0
10
2.7420924072
20
13.5958101807
10
2.7733422699
20
13.5958101807
10
2.7733422699
20
13.5437280273
10
2.7655298462
20
13.5307071533
10
2.7499048309
20
13.5176862793
10
2.7342798157
20
13.5176862793
10
2.7186548004
20
13.5307071533
10
2.7108423767
20
13.5437280273
10
2.7030297852
20
13.5567489014
10
2.6952173615
20
13.5958101807
10
2.7030297852
20
13.6348728027
10
2.7108423767
20
13.6478936768
10
2.7186548004
20
13.6609145508
10
2.7342798157
20
13.6739354248
10
2.7499048309
20
13.6739354248
10
2.7655298462
20
13.6609145508
10
2.7733422699
20
13.6478936768
0
LWPOLYLINE
5
87
100
AcDbEntity
8
0
6
CONTINUOUS
62
5
370
-1
100
AcDbPolyline
90
17
70
0
43
0
10
8.9840445557
20
13.6274580078
10
9.0152949219
20
13.6274580078
10
9.0152949219
20
13.5753745117
10
9.0074819946
20
13.5623536377
10
8.9918568115
20
13.5493327637
10
8.9762322998
20
13.5493327637
10
8.9606071167
20
13.5623536377
10
8.9527948608
20
13.5753745117
10
8.9449819336
20
13.5883953857
10
8.9371696777
20
13.6274580078
10
8.9449819336
20
13.6665206299
10
8.9527948608
20
13.6795415039
10
8.9606071167
20
13.6925623779
10
8.9762322998
20
13.705583252
10
8.9918568115
20
13.705583252
10
9.0074819946
20
13.6925623779
10
9.0152949219
20
13.6795415039
0
LINE
5
88
100
AcDbEntity
8
0
6
CONTINUOUS
62
5
370
-1
100
AcDbLine
10
10.2027947388
20
13.6274580078
11
10.2418573608
21
13.6274580078
0
LWPOLYLINE
5
89
100
AcDbEntity
8
0
6
CONTINUOUS
62
5
370
-1
100
AcDbPolyline
90
17
70
0
43
0
10
5.7724883423
20
13.6282113037
10
5.8037380371
20
13.6282113037
10
5.8037380371
20
13.5761278076
10
5.7959257813
20
13.5631069336
10
5.7803005981
20
13.5500860596
10
5.7646760864
20
13.5500860596
10
5.7490509033
20
13.5631069336
10
5.7412386475
20
13.5761278076
10
5.7334257202
20
13.5891486816
10
5.7256134644
20
13.6282113037
10
5.7334257202
20
13.667272583
10
5.7412386475
20
13.680293457
10
5.7490509033
20
13.6933143311
10
5.7646760864
20
13.7063352051
10
5.7803005981
20
13.7063352051
10
5.7959257813
20
13.6933143311
10
5.8037380371
20
13.680293457
0
LINE
5
8A
100
AcDbEntity
8
0
6
CONTINUOUS
62
5
370
-1
100
AcDbLine
10
6.9834255981
20
13.6412321777
11
7.0381134033
21
13.6412321777
0
LWPOLYLINE
5
8B
100
AcDbEntity
8
0
6
CONTINUOUS
62
7
370
-1
100
AcDbPolyline
90
22
70
0
43
0
10
1.2126502992
20
10.1333944147
10
1.2147818259
20
10.1011211678
10
1.2187174315
20
10.0702568167
10
1.2244571163
20
10.0408013612
10
1.2319308267
20
10.0123483999
10
1.2412086162
20
9.9853043342
10
1.2525006448
20
9.9608883689
10
1.2659689746
20
9.9393795645
10
1.2814515435
20
9.9204988605
10
1.2986723249
20
9.9046282799
10
1.3179019625
20
9.8918906575
10
1.3388698127
20
9.8821631586
10
1.3604879175
20
9.8754593013
10
1.382394018
20
9.8719676651
10
1.4049503732
20
9.8714996706
10
1.428155802
20
9.8735030979
10
1.4520630677
20
9.8779868913
10
1.476619407
20
9.8849421065
10
1.5016653495
20
9.8937896911
10
1.5271477383
20
9.9043366277
10
1.5531197302
20
9.9167759337
10
1.5795813253
20
9.9311076093
0
LWPOLYLINE
5
8C
100
AcDbEntity
8
0
6
CONTINUOUS
62
7
370
-1
100
AcDbPolyline
90
22
70
0
43
0
10
2.4251516161
20
12.0892232814
10
2.3951166123
20
12.0772230974
10
2.3669790391
20
12.0639425049
10
2.3407388964
20
12.049381504
10
2.3159880256
20
12.0334811344
10
2.2931345854
20
12.0163003564
10
2.2734030512
20
11.9980160508
10
2.2571089054
20
11.9785603219
10
2.2439366658
20
11.9580010655
10
2.2341643607
20
11.93671885
10
2.2279924468
20
11.914494236
10
2.2252204675
20
11.891546663
10
2.2255250821
20
11.8689150177
10
2.2289736961
20
11.8470021031
10
2.235498904
20
11.8254051163
10
2.2445751485
20
11.8039545351
10
2.2562272408
20
11.7826029426
10
2.2704303697
20
11.7613977558
10
2.2865845445
20
11.740311703
10
2.3044897685
20
11.7193356937
10
2.3243460385
20
11.6984788185
10
2.3461533545
20
11.6777410774
0
LWPOLYLINE
5
8D
100
AcDbEntity
8
0
6
CONTINUOUS
62
7
370
-1
100
AcDbPolyline
90
22
70
0
43
0
10
2.6980705751
20
8.3758527784
10
2.7294229347
20
8.3679069989
10
2.759992846
20
8.3621123733
10
2.789780309
20
8.3584689016
10
2.8191501869
20
8.356784374
10
2.8477376164
20
8.3572510003
10
2.874448008
20
8.3604454094
10
2.8990660393
20
8.3666079661
10
2.9218070328
20
8.3754983058
10
2.942222366
20
8.386971963
10
2.9602788496
20
8.4013242934
10
2.976009673
20
8.4182599414
10
2.9890657819
20
8.4367483751
10
2.9991558826
20
8.4565033398
10
3.0065712689
20
8.4778110901
10
3.0118367681
20
8.5004998575
10
3.0149601786
20
8.5246225867
10
3.0159337021
20
8.5501263329
10
3.0152587709
20
8.5766804937
10
3.0131025293
20
8.6041748683
10
3.0092978331
20
8.6327196574
10
3.0038446823
20
8.6623148611
0
LWPOLYLINE
5
8E
100
AcDbEntity
8
0
6
CONTINUOUS
62
7
370
-1
100
AcDbPolyline
90
10
70
0
43
0
10
1.9634119404
20
12.4618124773
10
1.9650836939
20
12.4418696993
10
1.9672091458
20
12.4222644531
10
1.9697882962
20
12.4029967386
10
1.9728285146
20
12.3840577306
10
1.9763224313
20
12.3654562543
10
1.9802479379
20
12.3472187855
10
1.9845976648
20
12.3293541495
10
1.9893789814
20
12.3118535211
10
1.9945918879
20
12.2947169002
0
LWPOLYLINE
5
8F
100
AcDbEntity
8
0
6
CONTINUOUS
62
7
370
-1
100
AcDbPolyline
90
10
70
0
43
0
10
2.2865900248
20
12.6105603804
10
2.2854066091
20
12.5905826759
10
2.2847203095
20
12.5708744994
10
2.2845311262
20
12.5514358511
10
2.2848450977
20
12.5322569467
10
2.2856561853
20
12.5133475704
10
2.2869462735
20
12.494737075
10
2.2887093236
20
12.4764352445
10
2.2909513743
20
12.458432295
10
2.2936724254
20
12.4407282262
0
LWPOLYLINE
5
90
100
AcDbEntity
8
0
6
CONTINUOUS
62
7
370
-1
100
AcDbPolyline
90
10
70
0
43
0
10
2.6276476561
20
12.7118012076
10
2.6236331621
20
12.6921952649
10
2.6201490821
20
12.6727853599
10
2.6171954163
20
12.6535714926
10
2.6147767493
20
12.6345431189
10
2.6128884965
20
12.615710783
10
2.6115169038
20
12.5971061169
10
2.6106573865
20
12.5787396645
10
2.6103145295
20
12.5606008819
10
2.6104883326
20
12.5426897691
0
LWPOLYLINE
5
91
100
AcDbEntity
8
0
6
CONTINUOUS
62
7
370
-1
100
AcDbPolyline
90
10
70
0
43
0
10
2.9796418845
20
12.7634739874
10
2.9728780356
20
12.744638927
10
2.9666671011
20
12.7259224232
10
2.961009081
20
12.7073244758
10
2.9559070126
20
12.6888339958
10
2.9513578586
20
12.6704620723
10
2.9473525066
20
12.6522419728
10
2.9438879194
20
12.6341847865
10
2.9409671342
20
12.6162794242
10
2.9385901511
20
12.5985258859
0
LWPOLYLINE
5
92
100
AcDbEntity
8
0
6
CONTINUOUS
62
7
370
-1
100
AcDbPolyline
90
10
70
0
43
0
10
3.3354071225
20
12.7645268112
10
3.3260316112
20
12.7468460606
10
3.3172202589
20
12.7292039719
10
3.3089730653
20
12.7116005451
10
3.301291459
20
12.6940243715
10
3.2941740115
20
12.6764868598
10
3.2876164377
20
12.6590222357
10
3.2816173094
20
12.6416419077
10
3.2761780549
20
12.6243344673
10
3.2712986741
20
12.6070999144
0
LWPOLYLINE
5
93
100
AcDbEntity
8
0
6
CONTINUOUS
62
7
370
-1
100
AcDbPolyline
90
13
70
0
43
0
10
1.4857133502
20
9.5428544871
10
1.4733592607
20
9.5233563278
10
1.4630586596
20
9.5030800029
10
1.4548115468
20
9.4820255125
10
1.4485315847
20
9.4600112041
10
1.444305111
20
9.4372187303
10
1.4423911388
20
9.4141930481
10
1.4428588446
20
9.3908415999
10
1.445639052
20
9.3672569434
10
1.4507832446
20
9.3442617089
10
1.4583085836
20
9.3221301065
10
1.4681979078
20
9.3005879261
10
1.4804512172
20
9.2796351678
0
LWPOLYLINE
5
94
100
AcDbEntity
8
0
6
CONTINUOUS
62
7
370
-1
100
AcDbPolyline
90
10
70
0
43
0
10
3.6877010157
20
12.7149382465
10
3.6759047005
20
12.6987717348
10
3.664672304
20
12.6825632033
10
3.6540038261
20
12.666312652
10
3.6438990572
20
12.6500085851
10
3.6343582069
20
12.6336624984
10
3.6253819046
20
12.617308879
10
3.6169703602
20
12.6009592226
10
3.6091233639
20
12.5846020336
10
3.6018409155
20
12.5682373119
0
LWPOLYLINE
5
95
100
AcDbEntity
8
0
6
CONTINUOUS
62
7
370
-1
100
AcDbPolyline
90
10
70
0
43
0
10
4.0293518765
20
12.6157177734
10
4.0153748963
20
12.6013946042
10
4.0019501148
20
12.5869495889
10
3.9890775321
20
12.5723827274
10
3.9767553045
20
12.557682671
10
3.9649852756
20
12.5428607684
10
3.9537729765
20
12.5279510663
10
3.9431202508
20
12.5129649135
10
3.9330252548
20
12.4978909611
10
3.9234879886
20
12.4827292091
0
LWPOLYLINE
5
96
100
AcDbEntity
8
0
6
CONTINUOUS
62
7
370
-1
100
AcDbPolyline
90
10
70
0
43
0
10
4.3534046786
20
12.4688852346
10
4.3375315644
20
12.4566969863
10
4.3221876878
20
12.444309546
10
4.3073730489
20
12.4317229138
10
4.2930842076
20
12.4189261185
10
4.279324604
20
12.4059301313
10
4.2661045581
20
12.392767865
10
4.2534275098
20
12.3794502905
10
4.2412900193
20
12.365966437
10
4.2296920864
20
12.3523163043
0
LWPOLYLINE
5
97
100
AcDbEntity
8
0
6
CONTINUOUS
62
7
370
-1
100
AcDbPolyline
90
10
70
0
43
0
10
4.6532626414
20
12.2774297173
10
4.635816524
20
12.2676245075
10
4.6188659094
20
12.2575468148
10
4.6024107976
20
12.2471966392
10
4.5864462223
20
12.236563611
10
4.5709771498
20
12.2256581
10
4.5560184791
20
12.2145112153
10
4.5415751764
20
12.2031333266
10
4.5276422756
20
12.1915140642
10
4.5142197765
20
12.1796534281
0
LWPOLYLINE
5
98
100
AcDbEntity
8
0
6
CONTINUOUS
62
7
370
-1
100
AcDbPolyline
90
10
70
0
43
0
10
4.9228215215
20
12.0452487036
10
4.9041575536
20
12.038026138
10
4.8859452666
20
12.0304633457
10
4.8681846606
20
12.0225603266
10
4.8508693439
20
12.0143075232
10
4.8340057082
20
12.0057144931
10
4.8176129281
20
11.9968099084
10
4.8016973951
20
11.9876033265
10
4.7862527176
20
11.97808519
10
4.7712788957
20
11.9682554989
0
LWPOLYLINE
5
99
100
AcDbEntity
8
0
6
CONTINUOUS
62
7
370
-1
100
AcDbPolyline
90
10
70
0
43
0
10
1.1731755295
20
8.7766840756
10
1.1926774034
20
8.7811769663
10
1.2117806131
20
8.7860709016
10
1.2304851587
20
8.7913658816
10
1.2487987268
20
8.7970704568
10
1.2667136307
20
8.8031760767
10
1.2842068105
20
8.8096570897
10
1.3012705795
20
8.8165049454
10
1.3179126245
20
8.8237281942
10
1.3341329454
20
8.8313268362
0
LWPOLYLINE
5
9A
100
AcDbEntity
8
0
6
CONTINUOUS
62
7
370
-1
100
AcDbPolyline
90
10
70
0
43
0
10
0.9799486287
20
9.0754036393
10
0.9998914067
20
9.0770753929
10
1.0194966529
20
9.0792008448
10
1.0387643674
20
9.0817799952
10
1.0577033754
20
9.0848202135
10
1.0763048517
20
9.0883141303
10
1.0945423205
20
9.0922396369
10
1.1124069565
20
9.0965893638
10
1.1299075849
20
9.1013706804
10
1.1470442058
20
9.1065835869
0
LWPOLYLINE
5
9B
100
AcDbEntity
8
0
6
CONTINUOUS
62
7
370
-1
100
AcDbPolyline
90
10
70
0
43
0
10
0.8312007256
20
9.3985817238
10
0.8511784301
20
9.3973983081
10
0.8708866066
20
9.3967120085
10
0.8903252549
20
9.3965228252
10
0.9095041593
20
9.3968367967
10
0.9284135356
20
9.3976478843
10
0.947024031
20
9.3989379725
10
0.9653258615
20
9.4007010226
10
0.983328811
20
9.4029430733
10
1.0010328798
20
9.4056641244
0
LWPOLYLINE
5
9C
100
AcDbEntity
8
0
6
CONTINUOUS
62
7
370
-1
100
AcDbPolyline
90
10
70
0
43
0
10
0.7299598984
20
9.7396393551
10
0.7495658411
20
9.7356248611
10
0.7689757461
20
9.7321407811
10
0.7881896134
20
9.7291871153
10
0.807217987
20
9.7267684483
10
0.826050323
20
9.7248801955
10
0.8446549891
20
9.7235086028
10
0.8630214415
20
9.7226490855
10
0.8811602241
20
9.7223062285
10
0.8990713369
20
9.7224800315
0
LWPOLYLINE
5
9D
100
AcDbEntity
8
0
6
CONTINUOUS
62
7
370
-1
100
AcDbPolyline
90
10
70
0
43
0
10
0.6782871186
20
10.0916335835
10
0.697122179
20
10.0848697346
10
0.7158386828
20
10.0786588001
10
0.7344366302
20
10.0730007799
10
0.7529271102
20
10.0678987116
10
0.7712990337
20
10.0633495576
10
0.7895191332
20
10.0593442056
10
0.8075763195
20
10.0558796184
10
0.8254816818
20
10.0529588332
10
0.8432352201
20
10.0505818501
0
LWPOLYLINE
5
9E
100
AcDbEntity
8
0
6
CONTINUOUS
62
7
370
-1
100
AcDbPolyline
90
10
70
0
43
0
10
0.6772342948
20
10.4473988214
10
0.6949150454
20
10.4380233102
10
0.7125571341
20
10.4292119578
10
0.7301605609
20
10.4209647643
10
0.7477367345
20
10.413283158
10
0.7652742462
20
10.4061657104
10
0.7827388703
20
10.3996081367
10
0.8001191983
20
10.3936090084
10
0.8174266387
20
10.3881697538
10
0.8346611916
20
10.3832903731
0
LWPOLYLINE
5
9F
100
AcDbEntity
8
0
6
CONTINUOUS
62
7
370
-1
100
AcDbPolyline
90
10
70
0
43
0
10
0.7268228595
20
10.7996927147
10
0.7429893712
20
10.7878963995
10
0.7591979027
20
10.776664003
10
0.775448454
20
10.7659955251
10
0.7917525209
20
10.7558907562
10
0.8080986076
20
10.7463499059
10
0.824452227
20
10.7373736036
10
0.8408018834
20
10.7289620592
10
0.8571590724
20
10.7211150628
10
0.8735237941
20
10.7138326145
0
LWPOLYLINE
5
A0
100
AcDbEntity
8
0
6
CONTINUOUS
62
7
370
-1
100
AcDbPolyline
90
10
70
0
43
0
10
0.8260433326
20
11.1413435755
10
0.8403665018
20
11.1273665953
10
0.8548115171
20
11.1139418138
10
0.8693783786
20
11.1010692311
10
0.884078435
20
11.0887470035
10
0.8989003376
20
11.0769769746
10
0.9138100397
20
11.0657646755
10
0.9287961925
20
11.0551119498
10
0.9438701449
20
11.0450169538
10
0.9590318969
20
11.0354796876
0
LWPOLYLINE
5
A1
100
AcDbEntity
8
0
6
CONTINUOUS
62
7
370
-1
100
AcDbPolyline
90
13
70
0
43
0
10
3.3440885446
20
8.4530642988
10
3.3588147725
20
8.4352895989
10
3.3749156426
20
8.4192274162
10
3.3923911549
20
8.4048777505
10
3.4113873913
20
8.3921023562
10
3.4317582699
20
8.3810394791
10
3.453065545
20
8.3721038562
10
3.475418621
20
8.3653326766
10
3.4987080936
20
8.3606887512
10
3.5221675041
20
8.3584752509
10
3.5455413664
20
8.3587932323
10
3.5690851667
20
8.3615416387
10
3.592798905
20
8.3667204701
0
LWPOLYLINE
5
A2
100
AcDbEntity
8
0
6
CONTINUOUS
62
7
370
-1
100
AcDbPolyline
90
10
70
0
43
0
10
0.9728758714
20
11.4653963776
10
0.9850641197
20
11.4495232634
10
0.99745156
20
11.4341793868
10
1.0100381922
20
11.4193647479
10
1.0228349875
20
11.4050759066
10
1.0358309747
20
11.391316303
10
1.048993241
20
11.3780962571
10
1.0623108155
20
11.3654192088
10
1.075794669
20
11.3532817183
10
1.0894448017
20
11.3416837854
0
LWPOLYLINE
5
A3
100
AcDbEntity
8
0
6
CONTINUOUS
62
7
370
-1
100
AcDbPolyline
90
10
70
0
43
0
10
1.1643313887
20
11.7652543404
10
1.1741365985
20
11.747808223
10
1.1842142912
20
11.7308576084
10
1.1945644668
20
11.7144024966
10
1.205197495
20
11.6984379213
10
1.216103006
20
11.6829688488
10
1.2272498907
20
11.6680101781
10
1.2386277794
20
11.6535668754
10
1.2502470418
20
11.6396339746
10
1.2621076779
20
11.6262114755
0
LWPOLYLINE
5
A4
100
AcDbEntity
8
0
6
CONTINUOUS
62
7
370
-1
100
AcDbPolyline
90
10
70
0
43
0
10
1.3965124024
20
12.0348132205
10
1.403734968
20
12.0161492526
10
1.4112977603
20
11.9979369656
10
1.4192007794
20
11.9801763596
10
1.4274535828
20
11.9628610429
10
1.4360466129
20
11.9459974072
10
1.4449511976
20
11.9296046271
10
1.4541577795
20
11.9136890941
10
1.463675916
20
11.8982444166
10
1.4735056071
20
11.8832705947
0
LWPOLYLINE
5
A5
100
AcDbEntity
8
0
6
CONTINUOUS
62
7
370
-1
100
AcDbPolyline
90
10
70
0
43
0
10
1.6646923766
20
12.2685855765
10
1.6691852673
20
12.2490837026
10
1.6740792026
20
12.2299804928
10
1.6793741826
20
12.2112759473
10
1.6850787578
20
12.1929623792
10
1.6911843777
20
12.1750474753
10
1.6976653907
20
12.1575542955
10
1.7045132464
20
12.1404905265
10
1.7117364952
20
12.1238484815
10
1.7193351372
20
12.1076281606
0
LWPOLYLINE
5
A6
100
AcDbEntity
8
0
6
CONTINUOUS
62
7
370
-1
100
AcDbPolyline
90
10
70
0
43
0
10
2.8650429404
20
7.9635756297
10
2.8668553546
20
7.945756231
10
2.8692064832
20
7.9277677107
10
2.8720963263
20
7.9096100688
10
2.8755214704
20
7.8912723637
10
2.879485329
20
7.8727655371
10
2.8839981416
20
7.8541224135
10
2.8890633215
20
7.8353539346
10
2.8946774555
20
7.8164491587
10
2.9008405436
20
7.7974080859
0
LWPOLYLINE
5
A7
100
AcDbEntity
8
0
6
CONTINUOUS
62
7
370
-1
100
AcDbPolyline
90
10
70
0
43
0
10
2.5388778718
20
8.0297936281
10
2.5381358735
20
8.0118976717
10
2.5379030376
20
7.9937576481
10
2.5381793643
20
7.9753735573
10
2.5389599179
20
7.9567350548
10
2.5402496341
20
7.9378524851
10
2.5420633197
20
7.9187568814
10
2.5444059103
20
7.8994585883
10
2.5472724704
20
7.8799472612
10
2.5506629999
20
7.8602229002
0
LWPOLYLINE
5
A8
100
AcDbEntity
8
0
6
CONTINUOUS
62
7
370
-1
100
AcDbPolyline
90
10
70
0
43
0
10
2.2254564971
20
8.1417557517
10
2.2221751911
20
8.1241475477
10
2.2193631307
20
8.1062252994
10
2.2170203159
20
8.0879890067
10
2.2151403891
20
8.069429133
10
2.2137297079
20
8.0505552149
10
2.212807345
20
8.0313958626
10
2.212379658
20
8.0119606128
10
2.2124402893
20
7.9922399288
10
2.2129892389
20
7.9722338107
0
LWPOLYLINE
5
A9
100
AcDbEntity
8
0
6
CONTINUOUS
62
7
370
-1
100
AcDbPolyline
90
10
70
0
43
0
10
1.9311591716
20
8.2971827746
10
1.9254053558
20
8.2802207753
10
1.9200713163
20
8.2628811476
10
1.9151570529
20
8.2451638914
10
1.9106549156
20
8.2270604718
10
1.9065725546
20
8.2085794238
10
1.9029329199
20
8.189746352
10
1.8997436617
20
8.1705697913
10
1.8969971299
20
8.1510412067
10
1.8946933245
20
8.1311605984
0
LWPOLYLINE
5
AA
100
AcDbEntity
8
0
6
CONTINUOUS
62
7
370
-1
100
AcDbPolyline
90
10
70
0
43
0
10
1.6619769401
20
8.4929106508
10
1.6538677457
20
8.4769401536
10
1.6461203127
20
8.4605361312
10
1.638734641
20
8.4436985837
10
1.6317019438
20
8.4264201518
10
1.6250310079
20
8.4087081948
10
1.6187481939
20
8.3905847905
10
1.6128622886
20
8.3720572983
10
1.6073645052
20
8.3531183588
10
1.6022548436
20
8.3337679721
0
LWPOLYLINE
5
AB
100
AcDbEntity
8
0
6
CONTINUOUS
62
7
370
-1
100
AcDbPolyline
90
10
70
0
43
0
10
1.4233895767
20
8.7249549252
10
1.4130900835
20
8.7103010432
10
1.4030869723
20
8.6951665649
10
1.3933802433
20
8.67955149
10
1.3839601515
20
8.6634497848
10
1.3748364419
20
8.6468674831
10
1.3660383485
20
8.6298226867
10
1.3575756162
20
8.6123214292
10
1.3494385002
20
8.594357677
10
1.3416270004
20
8.57593143
0
LWPOLYLINE
5
AC
100
AcDbEntity
8
0
6
CONTINUOUS
62
7
370
-1
100
AcDbPolyline
90
10
70
0
43
0
10
1.220254032
20
8.9885918454
10
1.2079739079
20
8.9755528896
10
1.1959187532
20
8.9619960496
10
1.1840885678
20
8.9479213252
10
1.1724728474
20
8.933324131
10
1.1610820964
20
8.9182090525
10
1.1499478275
20
8.9025898467
10
1.139080545
20
8.8864710993
10
1.1284697445
20
8.8698482245
10
1.1181154263
20
8.8527212224
0
LWPOLYLINE
5
AD
100
AcDbEntity
8
0
6
CONTINUOUS
62
7
370
-1
100
AcDbPolyline
90
10
70
0
43
0
10
1.0567055599
20
9.2784545242
10
1.0426947929
20
9.26729593
10
1.0288330028
20
9.2555927064
10
1.0151201895
20
9.2433448534
10
1.0015453031
20
9.230549327
10
0.9881193935
20
9.2172091711
10
0.9748756107
20
9.2033335179
10
0.9618250045
20
9.1889254116
10
0.948956525
20
9.1739818081
10
0.9362701722
20
9.1585027073
0
LWPOLYLINE
5
AE
100
AcDbEntity
8
0
6
CONTINUOUS
62
7
370
-1
100
AcDbPolyline
90
10
70
0
43
0
10
2.0273065442
20
10.19899889
10
2.2259460592
20
10.3248719321
10
2.2911799576
20
10.3661088407
10
2.3549932304
20
10.406004357
10
2.4173262732
20
10.4445213403
10
2.4782386904
20
10.4816969311
10
2.5369822959
20
10.516660603
10
2.593307694
20
10.5491221804
10
2.6474642802
20
10.5793718387
10
2.6994520546
20
10.6074095781
0
LWPOLYLINE
5
AF
100
AcDbEntity
8
0
6
CONTINUOUS
62
7
370
-1
100
AcDbPolyline
90
10
70
0
43
0
10
0.9360735357
20
9.5886421932
10
0.9206173446
20
9.5795911174
10
0.9052311051
20
9.5699797542
10
0.8899148173
20
9.5598081035
10
0.8746571104
20
9.5490747248
10
0.8594693551
20
9.5377810586
10
0.8443856635
20
9.5259314265
10
0.8294174063
20
9.5135272688
10
0.8145532129
20
9.5005671452
10
0.7997930831
20
9.4870510556
0
LWPOLYLINE
5
B0
100
AcDbEntity
8
0
6
CONTINUOUS
62
7
370
-1
100
AcDbPolyline
90
8
70
0
43
0
10
1.5795813253
20
9.9311076093
10
1.6404123843
20
9.9648178355
10
1.7023390123
20
10.0001242509
10
1.7653612094
20
10.0370268555
10
1.8297116722
20
10.0758473853
10
1.895157704
20
10.1162641043
10
1.9610012153
20
10.1573118041
10
2.0273065442
20
10.19899889
0
LWPOLYLINE
5
B1
100
AcDbEntity
8
0
6
CONTINUOUS
62
7
370
-1
100
AcDbPolyline
90
16
70
0
43
0
10
2.6994520546
20
10.6074095781
10
2.7243711084
20
10.6196848171
10
2.746967951
20
10.6333917182
10
2.7672425825
20
10.6485302813
10
2.785258195
20
10.6651384909
10
2.8009515963
20
10.6831783625
10
2.8141332101
20
10.7025359429
10
2.8247695927
20
10.7231635657
10
2.8328941878
20
10.7451088973
10
2.8384177496
20
10.7684009832
10
2.8414359641
20
10.7933096147
10
2.8418531454
20
10.8195650005
10
2.8392929902
20
10.8463868121
10
2.8336300641
20
10.8735149397
10
2.8249898014
20
10.9012094931
10
2.8133722022
20
10.9294704723
0
LWPOLYLINE
5
B2
100
AcDbEntity
8
0
6
CONTINUOUS
62
7
370
-1
100
AcDbPolyline
90
10
70
0
43
0
10
0.8608136795
20
9.912840326
10
0.8442267078
20
9.9060810225
10
0.8276292384
20
9.8987571792
10
0.8110212715
20
9.8908687963
10
0.794391347
20
9.882416066
10
0.7777509248
20
9.873398796
10
0.761134385
20
9.8638164091
10
0.7445531874
20
9.853668713
10
0.7279958721
20
9.8429559
10
0.7114624391
20
9.8316779702
0
LWPOLYLINE
5
B3
100
AcDbEntity
8
0
6
CONTINUOUS
62
7
370
-1
100
AcDbPolyline
90
10
70
0
43
0
10
5.497311342
20
10.3093036215
10
5.5146914315
20
10.3136335529
10
5.5321622541
20
10.3185207837
10
5.5497238098
20
10.3239653142
10
5.5673874146
20
10.3299653229
10
5.5851417526
20
10.3365226311
10
5.6029528758
20
10.3436427029
10
5.6208094684
20
10.3513273596
10
5.6387228464
20
10.35957478
10
5.6566930097
20
10.3683849639
0
LWPOLYLINE
5
B4
100
AcDbEntity
8
0
6
CONTINUOUS
62
7
370
-1
100
AcDbPolyline
90
10
70
0
43
0
10
5.4781854763
20
9.9770346394
10
5.496004875
20
9.9788470536
10
5.5139933953
20
9.9811981822
10
5.5321510372
20
9.9840880252
10
5.5504887423
20
9.9875131694
10
5.5689955689
20
9.991477028
10
5.5876386925
20
9.9959898406
10
5.6064071714
20
10.0010550205
10
5.6253119473
20
10.0066691545
10
5.6443530201
20
10.0128322426
0
LWPOLYLINE
5
B5
100
AcDbEntity
8
0
6
CONTINUOUS
62
7
370
-1
100
AcDbPolyline
90
10
70
0
43
0
10
5.4119674779
20
9.6508695708
10
5.4298634343
20
9.6501275724
10
5.4480034579
20
9.6498947366
10
5.4663875487
20
9.6501710633
10
5.4850260512
20
9.6509516169
10
5.5039086209
20
9.6522413331
10
5.5230042246
20
9.6540550187
10
5.5423025177
20
9.6563976093
10
5.5618138448
20
9.6592641694
10
5.5815382058
20
9.6626546989
0
LWPOLYLINE
5
B6
100
AcDbEntity
8
0
6
CONTINUOUS
62
7
370
-1
100
AcDbPolyline
90
10
70
0
43
0
10
4.1309800201
20
9.6712289682
10
3.8962909589
20
9.6861529155
10
3.8192771798
20
9.691135079
10
3.7442011615
20
9.696367429
10
3.6711329559
20
9.7018449782
10
3.6000025111
20
9.707572714
10
3.5319268053
20
9.7138151342
10
3.4672781646
20
9.7206604048
10
3.4056842629
20
9.7280203598
10
3.3471451002
20
9.7358949993
0
LWPOLYLINE
5
B7
100
AcDbEntity
8
0
6
CONTINUOUS
62
7
370
-1
100
AcDbPolyline
90
8
70
0
43
0
10
4.6506598751
20
9.6247912862
10
4.5816321408
20
9.6332747397
10
4.510779856
20
9.6411108083
10
4.4381030208
20
9.6482994921
10
4.3632242679
20
9.6547172767
10
4.2865209645
20
9.6604876765
10
4.2091252124
20
9.6659812347
10
4.1309800201
20
9.6712289682
0
LWPOLYLINE
5
B8
100
AcDbEntity
8
0
6
CONTINUOUS
62
7
370
-1
100
AcDbPolyline
90
16
70
0
43
0
10
3.3471451002
20
9.7358949993
10
3.3197699577
20
9.7406111746
10
3.2934320137
20
9.7428041496
10
3.2681312681
20
9.7424739241
10
3.2437942708
20
9.7396269117
10
3.2204944719
20
9.7342566988
10
3.1984522221
20
9.7263440455
10
3.1777225953
20
9.7159078569
10
3.1582505176
20
9.7029292278
10
3.1400911176
20
9.6873322027
10
3.1230084045
20
9.6689547585
10
3.1072383692
20
9.6479589182
10
3.093544113
20
9.6247547954
10
3.0821800031
20
9.5994790946
10
3.0728916724
20
9.5719951112
10
3.0656791208
20
9.5423028454
0
LWPOLYLINE
5
B9
100
AcDbEntity
8
0
6
CONTINUOUS
62
7
370
-1
100
AcDbPolyline
90
10
70
0
43
0
10
5.3000053543
20
9.3374481961
10
5.3176135583
20
9.3341668901
10
5.3355358066
20
9.3313548297
10
5.3537720993
20
9.3290120148
10
5.372331973
20
9.3271320881
10
5.3912058911
20
9.3257214069
10
5.4103652434
20
9.324799044
10
5.4298004932
20
9.324371357
10
5.4495211772
20
9.3244319883
10
5.4695272953
20
9.3249809379
0
LWPOLYLINE
5
BA
100
AcDbEntity
8
0
6
CONTINUOUS
62
7
370
-1
100
AcDbPolyline
90
10
70
0
43
0
10
5.1445783314
20
9.0431508706
10
5.1615403307
20
9.0373970548
10
5.1788799584
20
9.0320630153
10
5.1965972146
20
9.0271487519
10
5.2147006342
20
9.0226466146
10
5.2331816822
20
9.0185642535
10
5.252014754
20
9.0149246189
10
5.2711913147
20
9.0117353607
10
5.2907198993
20
9.0089888289
10
5.3106005076
20
9.0066850235
0
LWPOLYLINE
5
BB
100
AcDbEntity
8
0
6
CONTINUOUS
62
7
370
-1
100
AcDbPolyline
90
10
70
0
43
0
10
4.9488504552
20
8.7739686391
10
4.9648209524
20
8.7658594447
10
4.9812249748
20
8.7581120117
10
4.9980625223
20
8.75072634
10
5.0153409542
20
8.7436936427
10
5.0330529112
20
8.7370227069
10
5.0511763155
20
8.7307398929
10
5.0697038077
20
8.7248539876
10
5.0886427472
20
8.7193562042
10
5.1079931339
20
8.7142465426
0
LWPOLYLINE
5
BC
100
AcDbEntity
8
0
6
CONTINUOUS
62
7
370
-1
100
AcDbPolyline
90
10
70
0
43
0
10
4.7168061808
20
8.5353812757
10
4.7314600628
20
8.5250817825
10
4.7465945411
20
8.5150786713
10
4.762209616
20
8.5053719423
10
4.7783113212
20
8.4959518505
10
4.7948936229
20
8.4868281409
10
4.8119384193
20
8.4780300475
10
4.8294396768
20
8.4695673152
10
4.847403429
20
8.4614301992
10
4.865829676
20
8.4536186994
0
LWPOLYLINE
5
BD
100
AcDbEntity
8
0
6
CONTINUOUS
62
7
370
-1
100
AcDbPolyline
90
10
70
0
43
0
10
4.4531692606
20
8.332245731
10
4.4662082164
20
8.3199656069
10
4.4797650564
20
8.3079104522
10
4.4938397808
20
8.2960802668
10
4.508436975
20
8.2844645464
10
4.5235520535
20
8.2730737954
10
4.5391712593
20
8.2619395265
10
4.5552900067
20
8.2510722439
10
4.5719128815
20
8.2404614435
10
4.5890398836
20
8.2301071253
0
LWPOLYLINE
5
BE
100
AcDbEntity
8
0
6
CONTINUOUS
62
7
370
-1
100
AcDbPolyline
90
10
70
0
43
0
10
4.1633065818
20
8.1686972589
10
4.174465176
20
8.1546864919
10
4.1861683996
20
8.1408247018
10
4.1984162526
20
8.1271118885
10
4.211211779
20
8.1135370021
10
4.2245519349
20
8.1001110925
10
4.2384275881
20
8.0868673096
10
4.2528356944
20
8.0738167034
10
4.2677792979
20
8.0609482239
10
4.2832583987
20
8.0482618712
0
LWPOLYLINE
5
BF
100
AcDbEntity
8
0
6
CONTINUOUS
62
7
370
-1
100
AcDbPolyline
90
10
70
0
43
0
10
3.8531189128
20
8.0480652347
10
3.8621699886
20
8.0326090436
10
3.8717813518
20
8.0172228041
10
3.8819530025
20
8.0019065163
10
3.8926863812
20
7.9866488093
10
3.9039800474
20
7.9714610541
10
3.9158296795
20
7.9563773625
10
3.9282338372
20
7.9414091053
10
3.9411939608
20
7.9265449119
10
3.9547100504
20
7.9117847821
0
LWPOLYLINE
5
C0
100
AcDbEntity
8
0
6
CONTINUOUS
62
7
370
-1
100
AcDbPolyline
90
10
70
0
43
0
10
3.52892078
20
7.9728053785
10
3.5356800835
20
7.9562184068
10
3.5430039268
20
7.9396209374
10
3.5508923097
20
7.9230129705
10
3.55934504
20
7.906383046
10
3.56836231
20
7.8897426238
10
3.5779446969
20
7.873126084
10
3.588092393
20
7.8565448864
10
3.598805206
20
7.8399875711
10
3.6100831358
20
7.8234541381
0
LWPOLYLINE
5
C1
100
AcDbEntity
8
0
6
CONTINUOUS
62
7
370
-1
100
AcDbPolyline
90
10
70
0
43
0
10
2.8874196356
20
9.1709098065
10
2.8290902446
20
9.3987241208
10
2.8100299971
20
9.4735081504
10
2.7918064922
20
9.5465265719
10
2.7744366338
20
9.6177112208
10
2.7579035179
20
9.6871302615
10
2.7428038623
20
9.7538031191
10
2.7293365729
20
9.817402935
10
2.7173027437
20
9.8782565678
10
2.7067023747
20
9.9363640173
0
LWPOLYLINE
5
C2
100
AcDbEntity
8
0
6
CONTINUOUS
62
7
370
-1
100
AcDbPolyline
90
10
70
0
43
0
10
3.1973119225
20
7.944449764
10
3.2016418539
20
7.9270696745
10
3.2065290848
20
7.9095988519
10
3.2119736152
20
7.8920372962
10
3.2179736239
20
7.8743736914
10
3.2245309321
20
7.8566193534
10
3.2316510039
20
7.8388082302
10
3.2393356606
20
7.8209516376
10
3.247583081
20
7.8030382596
10
3.2563932649
20
7.7850680963
0
LWPOLYLINE
5
C3
100
AcDbEntity
8
0
6
CONTINUOUS
62
7
370
-1
100
AcDbPolyline
90
8
70
0
43
0
10
3.0038446823
20
8.6623148611
10
2.990582183
20
8.7305856689
10
2.976140167
20
8.8003916744
10
2.9605186344
20
8.8717328776
10
2.9434835031
20
8.944930008
10
2.9252688552
20
9.0196623361
10
2.9065769368
20
9.0949676733
10
2.8874196356
20
9.1709098065
0
LWPOLYLINE
5
C4
100
AcDbEntity
8
0
6
CONTINUOUS
62
7
370
-1
100
AcDbPolyline
90
16
70
0
43
0
10
2.7067023747
20
9.9363640173
10
2.7027283398
20
9.9638567033
10
2.6966751106
20
9.9895832431
10
2.6885426872
20
10.0135436368
10
2.6783144717
20
10.0358097214
10
2.6660070619
20
10.0563096599
10
2.6516702516
20
10.0748279409
10
2.6353390395
20
10.0913180279
10
2.6169784268
20
10.1058264574
10
2.5965332113
20
10.1182773272
10
2.5737763745
20
10.1288450103
10
2.5489349349
20
10.1373551337
10
2.5226347448
20
10.143208677
10
2.4950844217
20
10.1462059666
10
2.4660753483
20
10.1465466762
10
2.4356075243
20
10.1442308056
0
LWPOLYLINE
5
C5
100
AcDbEntity
8
0
6
CONTINUOUS
62
7
370
-1
100
AcDbPolyline
90
16
70
0
43
0
10
3.6769152094
20
10.8128473154
10
3.7243173033
20
10.8583640125
10
3.7696933396
20
10.9087830174
10
3.8130433185
20
10.9641043301
10
3.8545941726
20
11.0245349874
10
3.8941189692
20
11.0898679525
10
3.9309369103
20
11.1594821149
10
3.9653230814
20
11.2342913723
10
3.9970023969
20
11.313381827
10
4.0244688024
20
11.393390676
10
4.047437628
20
11.4742451212
10
4.0661935436
20
11.5560179608
10
4.0800845039
20
11.6355647857
10
4.0888931605
20
11.7118374597
10
4.0928368619
20
11.7858841191
10
4.0919156081
20
11.8577047639
0
LWPOLYLINE
5
C6
100
AcDbEntity
8
0
6
CONTINUOUS
62
7
370
-1
100
AcDbPolyline
90
16
70
0
43
0
10
2.4356075243
20
10.1442308056
10
2.3705043816
20
10.1352692758
10
2.3041588495
20
10.121150809
10
2.2365709281
20
10.1018754051
10
2.1674353319
20
10.0774089556
10
2.0970573463
20
10.0477855691
10
2.0263528282
20
10.0131075715
10
1.9545620533
20
9.9727972952
10
1.8824447458
20
9.9274324077
10
1.8131959355
20
9.8788482372
10
1.7470887147
20
9.8269363539
10
1.6838499912
20
9.7718051876
10
1.6258555176
20
9.715615356
10
1.5738972118
20
9.659087065
10
1.5271831559
20
9.6015001087
10
1.4857133502
20
9.5428544871
0
LWPOLYLINE
5
C7
100
AcDbEntity
8
0
6
CONTINUOUS
62
7
370
-1
100
AcDbPolyline
90
16
70
0
43
0
10
2.8133722022
20
10.9294704723
10
2.7847313034
20
10.9886179754
10
2.7508019466
20
11.0473534798
10
2.7115841319
20
11.1056769855
10
2.6669510815
20
11.1638682962
10
2.6170295732
20
11.2216476081
10
2.5621999399
20
11.2781755101
10
2.5016780194
20
11.333996034
10
2.436247974
20
11.3885651481
10
2.3686426228
20
11.439411346
10
2.2988432333
20
11.4862413949
10
2.226868538
20
11.5293485278
10
2.1555075546
20
11.5671409368
10
2.0856899556
20
11.5990880196
10
2.0164860684
20
11.6257203787
10
1.9478958931
20
11.647038014
0
LWPOLYLINE
5
C8
100
AcDbEntity
8
0
6
CONTINUOUS
62
7
370
-1
100
AcDbPolyline
90
16
70
0
43
0
10
3.0656791208
20
9.5423028454
10
3.0540840646
20
9.4776168122
10
3.0470096276
20
9.4101556154
10
3.0444558097
20
9.339919255
10
3.0463607118
20
9.266606847
10
3.052786233
20
9.1905192754
10
3.063918071
20
9.1125591921
10
3.0800708524
20
9.0318255474
10
3.1009299506
20
8.949219391
10
3.1257371833
20
8.8683465244
10
3.1546800636
20
8.7894331671
10
3.1875710783
20
8.7122530997
10
3.2230895059
20
8.6397334649
10
3.2607951059
20
8.5728499769
10
3.3011281188
20
8.5106269216
10
3.3440885446
20
8.4530642988
0
LWPOLYLINE
5
C9
100
AcDbEntity
8
0
6
CONTINUOUS
62
7
370
-1
100
AcDbPolyline
90
16
70
0
43
0
10
3.8328494607
20
9.9555305739
10
3.8907864647
20
9.9245139366
10
3.9527597542
20
9.8969390909
10
4.0187693293
20
9.8728060367
10
4.0890822198
20
9.8519629263
10
4.1634313958
20
9.8345616074
10
4.2410157681
20
9.8210576238
10
4.322789511
20
9.8114717636
10
4.4077984502
20
9.8057832388
10
4.4923789735
20
9.8043852289
10
4.576373878
20
9.8075259753
10
4.6599403665
20
9.8149572367
10
4.7398864355
20
9.8263274691
10
4.8151480838
20
9.8415194913
10
4.8867893124
20
9.8606504845
10
4.9548101216
20
9.8837204487
0
LWPOLYLINE
5
CA
100
AcDbEntity
8
0
6
CONTINUOUS
62
7
370
-1
100
AcDbPolyline
90
8
70
0
43
0
10
4.2441842803
20
11.4884271785
10
4.2147852937
20
11.4253994332
10
4.1854381895
20
11.3604363845
10
4.1561429677
20
11.2935380322
10
4.1269004847
20
11.2243073108
10
4.0977098841
20
11.153141286
10
4.0685685971
20
11.0812311544
10
4.0394295135
20
11.0085322989
0
LWPOLYLINE
5
CB
100
AcDbEntity
8
0
6
CONTINUOUS
62
7
370
-1
100
AcDbPolyline
90
16
70
0
43
0
10
3.7357101522
20
10.2830438932
10
3.7227654187
20
10.2584659639
10
3.7125409033
20
10.2340947571
10
3.705036606
20
10.2099302729
10
3.70022373
20
10.1859046378
10
3.6981310721
20
10.1620857252
10
3.6988450228
20
10.1386771555
10
3.702364621
20
10.1157371493
10
3.7086908278
20
10.0932074859
10
3.717912917
20
10.0711171244
10
3.7301120564
20
10.0491915562
10
3.7452070782
20
10.0277052899
10
3.7630437525
20
10.00751081
10
3.7835706694
20
9.9888922782
10
3.8068392388
20
9.9715655328
10
3.8328494607
20
9.9555305739
0
LWPOLYLINE
5
CC
100
AcDbEntity
8
0
6
CONTINUOUS
62
7
370
-1
100
AcDbPolyline
90
8
70
0
43
0
10
2.3461533545
20
11.6777410774
10
2.3970115158
20
11.6303043352
10
2.4497262927
20
11.5823188944
10
2.5042976852
20
11.5337847551
10
2.5611035896
20
11.4845800317
10
2.6197661097
20
11.4348266096
10
2.6791515559
20
11.384890146
10
2.7392878042
20
11.3347120488
0
LWPOLYLINE
5
CD
100
AcDbEntity
8
0
6
CONTINUOUS
62
7
370
-1
100
AcDbPolyline
90
16
70
0
43
0
10
3.3354138358
20
10.8216695246
10
3.3547886929
20
10.8017633536
10
3.3748075389
20
10.7845081445
10
3.3954703737
20
10.7699038974
10
3.41683285
20
10.7579022507
10
3.4388393152
20
10.748551566
10
3.4613228109
20
10.7419969277
10
3.484227669
20
10.7382554127
10
3.5076095575
20
10.737309944
10
3.531468522
20
10.7392543749
10
3.5560907179
20
10.7440810728
10
3.5811899898
20
10.7517976702
10
3.605907917
20
10.7625209181
10
3.6299583592
20
10.7762897334
10
3.6536274567
20
10.7930651992
10
3.6769152094
20
10.8128473154
0
LWPOLYLINE
5
CE
100
AcDbEntity
8
0
6
CONTINUOUS
62
7
370
-1
100
AcDbPolyline
90
10
70
0
43
0
10
3.4647264666
20
12.5901771753
10
3.4629140524
20
12.607996574
10
3.4605629238
20
12.6259850943
10
3.4576730808
20
12.6441427362
10
3.4542479366
20
12.6624804413
10
3.450284078
20
12.6809872679
10
3.4457712654
20
12.6996303915
10
3.4407060855
20
12.7183988704
10
3.4350919515
20
12.7373036463
10
3.4289288634
20
12.7563447191
0
LWPOLYLINE
5
CF
100
AcDbEntity
8
0
6
CONTINUOUS
62
7
370
-1
100
AcDbPolyline
90
10
70
0
43
0
10
3.7908915352
20
12.5239591769
10
3.7916335336
20
12.5418551333
10
3.7918663694
20
12.5599951569
10
3.7915900427
20
12.5783792477
10
3.7908094891
20
12.5970177502
10
3.7895197729
20
12.6159003199
10
3.7877060873
20
12.6349959235
10
3.7853634967
20
12.6542942167
10
3.7824969366
20
12.6738055438
10
3.7791064071
20
12.6935299048
0
LWPOLYLINE
5
D0
100
AcDbEntity
8
0
6
CONTINUOUS
62
7
370
-1
100
AcDbPolyline
90
10
70
0
43
0
10
4.1043129099
20
12.4119970533
10
4.1075942159
20
12.4296052573
10
4.1104062763
20
12.4475275056
10
4.1127490912
20
12.4657637982
10
4.1146290179
20
12.484323672
10
4.1160396991
20
12.5031975901
10
4.116962062
20
12.5223569424
10
4.117389749
20
12.5417921922
10
4.1173291177
20
12.5615128761
10
4.1167801681
20
12.5815189943
0
LWPOLYLINE
5
D1
100
AcDbEntity
8
0
6
CONTINUOUS
62
7
370
-1
100
AcDbPolyline
90
10
70
0
43
0
10
4.3986102354
20
12.2565700304
10
4.4043640512
20
12.2735320297
10
4.4096980907
20
12.2908716574
10
4.4146123541
20
12.3085889136
10
4.4191144914
20
12.3266923332
10
4.4231968524
20
12.3451733812
10
4.4268364871
20
12.364006453
10
4.4300257453
20
12.3831830137
10
4.4327722771
20
12.4027115983
10
4.4350760825
20
12.4225922066
0
LWPOLYLINE
5
D2
100
AcDbEntity
8
0
6
CONTINUOUS
62
7
370
-1
100
AcDbPolyline
90
10
70
0
43
0
10
4.0394295135
20
11.0085322989
10
3.9527130879
20
10.7899414913
10
3.9241762023
20
10.718236608
10
3.8960001761
20
10.6484519567
10
3.8682114
20
10.5806526194
10
3.8407834833
20
10.5147735141
10
3.8138100389
20
10.4519586844
10
3.787322271
20
10.3925894783
10
3.7612889755
20
10.3362845479
10
3.7357101522
20
10.2830438932
0
LWPOLYLINE
5
D3
100
AcDbEntity
8
0
6
CONTINUOUS
62
7
370
-1
100
AcDbPolyline
90
10
70
0
43
0
10
4.6677924669
20
12.0608421542
10
4.6759016613
20
12.0768126514
10
4.6836490943
20
12.0932166738
10
4.691034766
20
12.1100542213
10
4.6980674633
20
12.1273326532
10
4.7047383991
20
12.1450446102
10
4.7110212131
20
12.1631680144
10
4.7169071184
20
12.1816955067
10
4.7224049018
20
12.2006344462
10
4.7275145634
20
12.2199848329
0
LWPOLYLINE
5
D4
100
AcDbEntity
8
0
6
CONTINUOUS
62
7
370
-1
100
AcDbPolyline
90
10
70
0
43
0
10
4.9063798303
20
11.8287978798
10
4.9166793235
20
11.8434517617
10
4.9266824347
20
11.8585862401
10
4.9363891637
20
11.874201315
10
4.9458092555
20
11.8903030202
10
4.9549329651
20
11.9068853218
10
4.9637310585
20
11.9239301183
10
4.9721937908
20
11.9414313757
10
4.9803309068
20
11.959395128
10
4.9881424066
20
11.977821375
0
LWPOLYLINE
5
D5
100
AcDbEntity
8
0
6
CONTINUOUS
62
7
370
-1
100
AcDbPolyline
90
10
70
0
43
0
10
5.109515375
20
11.5651609596
10
5.1217954991
20
11.5781999154
10
5.1338506538
20
11.5917567554
10
5.1456808392
20
11.6058314798
10
5.1572965596
20
11.620428674
10
5.1686873106
20
11.6355437525
10
5.1798215795
20
11.6511629583
10
5.1906888621
20
11.6672817057
10
5.2012996625
20
11.6839045805
10
5.2116539807
20
11.7010315826
0
LWPOLYLINE
5
D6
100
AcDbEntity
8
0
6
CONTINUOUS
62
7
370
-1
100
AcDbPolyline
90
10
70
0
43
0
10
5.2730638471
20
11.2752982808
10
5.2870746141
20
11.286456875
10
5.3009364042
20
11.2981600986
10
5.3146492175
20
11.3104079516
10
5.3282241039
20
11.323203478
10
5.3416500135
20
11.3365436339
10
5.3548937964
20
11.350419287
10
5.3679444026
20
11.3648273934
10
5.380812882
20
11.3797709969
10
5.3934992348
20
11.3952500977
0
LWPOLYLINE
5
D7
100
AcDbEntity
8
0
6
CONTINUOUS
62
7
370
-1
100
AcDbPolyline
90
10
70
0
43
0
10
5.3936958713
20
10.9651106118
10
5.4091520624
20
10.9741616876
10
5.4245383019
20
10.9837730508
10
5.4398545897
20
10.9939447015
10
5.4551122967
20
11.0046780802
10
5.4703000519
20
11.0159717464
10
5.4853837435
20
11.0278213785
10
5.5003520007
20
11.0402255362
10
5.5152161941
20
11.0531856598
10
5.5299763239
20
11.0667017494
0
LWPOLYLINE
5
D8
100
AcDbEntity
8
0
6
CONTINUOUS
62
7
370
-1
100
AcDbPolyline
90
10
70
0
43
0
10
5.4689557275
20
10.640912479
10
5.4855426992
20
10.6476717825
10
5.5021401686
20
10.6549956258
10
5.5187481355
20
10.6628840087
10
5.53537806
20
10.671336739
10
5.5520184822
20
10.680354009
10
5.568635022
20
10.6899363959
10
5.5852162196
20
10.700084092
10
5.6017735349
20
10.7107969049
10
5.6183069679
20
10.7220748348
0
LWPOLYLINE
5
D9
100
AcDbEntity
8
0
6
CONTINUOUS
62
7
370
-1
100
AcDbPolyline
90
10
70
0
43
0
10
0.832458065
20
10.2444491835
10
0.8150779755
20
10.2401192521
10
0.7976071529
20
10.2352320212
10
0.7800455972
20
10.2297874908
10
0.7623819924
20
10.2237874821
10
0.7446276544
20
10.2172301739
10
0.7268165312
20
10.2101101021
10
0.7089599386
20
10.2024254454
10
0.6910465606
20
10.194178025
10
0.6730763974
20
10.1853678411
0
LWPOLYLINE
5
DA
100
AcDbEntity
8
0
6
CONTINUOUS
62
7
370
-1
100
AcDbPolyline
90
10
70
0
43
0
10
0.8515839307
20
10.5767181656
10
0.833764532
20
10.5749057514
10
0.8157760117
20
10.5725546228
10
0.7976183698
20
10.5696647797
10
0.7792806647
20
10.5662396356
10
0.7607738381
20
10.562275777
10
0.7421307145
20
10.5577629644
10
0.7233622356
20
10.5526977845
10
0.7044574597
20
10.5470836505
10
0.6854163869
20
10.5409205624
0
LWPOLYLINE
5
DB
100
AcDbEntity
8
0
6
CONTINUOUS
62
7
370
-1
100
AcDbPolyline
90
10
70
0
43
0
10
0.9178019291
20
10.9028832342
10
0.8999059727
20
10.9036252325
10
0.8817659491
20
10.9038580684
10
0.8633818583
20
10.9035817417
10
0.8447433558
20
10.9028011881
10
0.8258607861
20
10.9015114719
10
0.8067651825
20
10.8996977863
10
0.7874668893
20
10.8973551957
10
0.7679555622
20
10.8944886356
10
0.7482312012
20
10.8910981061
0
LWPOLYLINE
5
DC
100
AcDbEntity
8
0
6
CONTINUOUS
62
7
370
-1
100
AcDbPolyline
90
10
70
0
43
0
10
1.0297640527
20
11.2163046089
10
1.0121558487
20
11.2195859149
10
0.9942336004
20
11.2223979753
10
0.9759973078
20
11.2247407901
10
0.957437434
20
11.2266207169
10
0.9385635159
20
11.2280313981
10
0.9194041636
20
11.228953761
10
0.8999689138
20
11.229381448
10
0.8802482299
20
11.2293208167
10
0.8602421117
20
11.2287718671
0
LWPOLYLINE
5
DD
100
AcDbEntity
8
0
6
CONTINUOUS
62
7
370
-1
100
AcDbPolyline
90
10
70
0
43
0
10
1.1851910756
20
11.5106019344
10
1.1682290763
20
11.5163557502
10
1.1508894486
20
11.5216897897
10
1.1331721924
20
11.5266040531
10
1.1150687728
20
11.5311061904
10
1.0965877248
20
11.5351885514
10
1.077754653
20
11.5388281861
10
1.0585780923
20
11.5420174443
10
1.0390495077
20
11.5447639761
10
1.0191688994
20
11.5470677815
0
LWPOLYLINE
5
DE
100
AcDbEntity
8
0
6
CONTINUOUS
62
7
370
-1
100
AcDbPolyline
90
10
70
0
43
0
10
1.3809189518
20
11.7797841659
10
1.3649484546
20
11.7878933603
10
1.3485444322
20
11.7956407933
10
1.3317068847
20
11.803026465
10
1.3144284528
20
11.8100591622
10
1.2967164958
20
11.8167300981
10
1.2785930916
20
11.8230129121
10
1.2600655993
20
11.8288988174
10
1.2411266598
20
11.8343966008
10
1.2217762731
20
11.8395062624
0
LWPOLYLINE
5
DF
100
AcDbEntity
8
0
6
CONTINUOUS
62
7
370
-1
100
AcDbPolyline
90
10
70
0
43
0
10
1.6129632262
20
12.0183715293
10
1.5983093443
20
12.0286710225
10
1.5831748659
20
12.0386741337
10
1.567559791
20
12.0483808627
10
1.5514580858
20
12.0578009545
10
1.5348757842
20
12.0669246641
10
1.5178309877
20
12.0757227575
10
1.5003297303
20
12.0841854898
10
1.482365978
20
12.0923226058
10
1.463939731
20
12.1001341056
0
LWPOLYLINE
5
E0
100
AcDbEntity
8
0
6
CONTINUOUS
62
7
370
-1
100
AcDbPolyline
90
10
70
0
43
0
10
2.7392878042
20
11.3347120488
10
2.9203831669
20
11.1846915528
10
2.9797601808
20
11.1353933343
10
3.0374224573
20
11.0870316979
10
3.0933162547
20
11.0396518538
10
3.1474953148
20
10.9932085917
10
3.1989005151
20
10.9481444718
10
3.247178815
20
10.904607014
10
3.2926832553
20
10.8624486982
10
3.3354138358
20
10.8216695246
0
LWPOLYLINE
5
E1
100
AcDbEntity
8
0
6
CONTINUOUS
62
7
370
-1
100
AcDbPolyline
90
10
70
0
43
0
10
1.8766001464
20
12.221507074
10
1.8635611906
20
12.2337871981
10
1.8500043506
20
12.2458423528
10
1.8359296262
20
12.2576725382
10
1.821332432
20
12.2692882586
10
1.8062173535
20
12.2806790096
10
1.7905981477
20
12.2918132785
10
1.7744794003
20
12.302680561
10
1.7578565255
20
12.3132913615
10
1.7407295234
20
12.3236456797
0
LWPOLYLINE
5
E2
100
AcDbEntity
8
0
6
CONTINUOUS
62
7
370
-1
100
AcDbPolyline
90
10
70
0
43
0
10
2.1664628252
20
12.3850555461
10
2.155304231
20
12.3990663131
10
2.1436010074
20
12.4129281032
10
2.1313531544
20
12.4266409165
10
2.118557628
20
12.4402158029
10
2.1052174721
20
12.4536417125
10
2.091341819
20
12.4668854953
10
2.0769337126
20
12.4799361015
10
2.0619901091
20
12.492804581
10
2.0465110083
20
12.5054909338
0
LWPOLYLINE
5
E3
100
AcDbEntity
8
0
6
CONTINUOUS
62
7
370
-1
100
AcDbPolyline
90
10
70
0
43
0
10
2.4766504942
20
12.5056875703
10
2.4675994184
20
12.5211437614
10
2.4579880552
20
12.5365300009
10
2.4478164045
20
12.5518462887
10
2.4370830258
20
12.5671039956
10
2.4257893596
20
12.5822917509
10
2.4139397275
20
12.5973754425
10
2.4015355698
20
12.6123436997
10
2.3885754462
20
12.6272078931
10
2.3750593566
20
12.6419680229
0
LWPOLYLINE
5
E4
100
AcDbEntity
8
0
6
CONTINUOUS
62
7
370
-1
100
AcDbPolyline
90
10
70
0
43
0
10
2.800848627
20
12.5809474264
10
2.7940893235
20
12.5975343982
10
2.7867654802
20
12.6141318676
10
2.7788770973
20
12.6307398345
10
2.770424367
20
12.647369759
10
2.761407097
20
12.6640101812
10
2.7518247101
20
12.680626721
10
2.741677014
20
12.6972079186
10
2.7309642011
20
12.7137652339
10
2.7196862712
20
12.7302986669
0
LWPOLYLINE
5
E5
100
AcDbEntity
8
0
6
CONTINUOUS
62
7
370
-1
100
AcDbPolyline
90
10
70
0
43
0
10
3.1324574845
20
12.609303041
10
3.1281275531
20
12.6266831305
10
3.1232403223
20
12.6441539531
10
3.1177957918
20
12.6617155088
10
3.1117957831
20
12.6793791136
10
3.1052384749
20
12.6971334516
10
3.0981184031
20
12.7149445748
10
3.0904337464
20
12.7328011674
10
3.082186326
20
12.7507145454
10
3.0733761421
20
12.7686847086
0
LWPOLYLINE
5
E6
100
AcDbEntity
8
0
6
CONTINUOUS
62
7
370
-1
100
AcDbPolyline
90
10
70
0
43
0
10
4.3663574667
20
8.0919403277
10
4.3646857131
20
8.1118831057
10
4.3625602612
20
8.1314883519
10
4.3599811108
20
8.1507560664
10
4.3569408925
20
8.1696950744
10
4.3534469757
20
8.1882965507
10
4.3495214691
20
8.2065340195
10
4.3451717422
20
8.2243986554
10
4.3403904256
20
8.2418992839
10
4.3351775191
20
8.2590359048
0
LWPOLYLINE
5
E7
100
AcDbEntity
8
0
6
CONTINUOUS
62
7
370
-1
100
AcDbPolyline
90
13
70
0
43
0
10
4.0919156081
20
11.8577047639
10
4.0904495459
20
11.8807406577
10
4.0868647825
20
11.9031990905
10
4.0811613179
20
11.9250800623
10
4.0733022282
20
11.946581281
10
4.0633244373
20
11.9675050387
10
4.0513387169
20
11.9872582115
10
4.0372346981
20
12.0058750193
10
4.0211227498
20
12.0233212423
10
4.0034447509
20
12.0389010973
10
3.9843479943
20
12.0523826565
10
3.963685187
20
12.0639978476
10
3.941456329
20
12.0737466706
0
LWPOLYLINE
5
E8
100
AcDbEntity
8
0
6
CONTINUOUS
62
7
370
-1
100
AcDbPolyline
90
10
70
0
43
0
10
4.0431793822
20
7.9431924246
10
4.0443627979
20
7.9631701291
10
4.0450490975
20
7.9828783055
10
4.0452382808
20
8.0023169539
10
4.0449243093
20
8.0214958583
10
4.0441132217
20
8.0404052346
10
4.0428231335
20
8.05901573
10
4.0410600834
20
8.0773175605
10
4.0388180327
20
8.09532051
10
4.0360969816
20
8.1130245788
0
LWPOLYLINE
5
E9
100
AcDbEntity
8
0
6
CONTINUOUS
62
7
370
-1
100
AcDbPolyline
90
10
70
0
43
0
10
3.7021217509
20
7.8419515974
10
3.7061362449
20
7.8615575401
10
3.7096203249
20
7.8809674451
10
3.7125739907
20
7.9001813124
10
3.7149926577
20
7.919209686
10
3.7168809105
20
7.938042022
10
3.7182525032
20
7.9566466881
10
3.7191120205
20
7.9750131405
10
3.7194548775
20
7.9931519231
10
3.7192810745
20
8.0110630359
0
LWPOLYLINE
5
EA
100
AcDbEntity
8
0
6
CONTINUOUS
62
7
370
-1
100
AcDbPolyline
90
10
70
0
43
0
10
3.3501275225
20
7.7902788176
10
3.3568913714
20
7.809113878
10
3.3631023059
20
7.8278303818
10
3.3687603261
20
7.8464283292
10
3.3738623944
20
7.8649188092
10
3.3784115484
20
7.8832907327
10
3.3824169004
20
7.9015108322
10
3.3858814876
20
7.9195680185
10
3.3888022728
20
7.9374733808
10
3.3911792559
20
7.9552269191
0
LWPOLYLINE
5
EB
100
AcDbEntity
8
0
6
CONTINUOUS
62
7
370
-1
100
AcDbPolyline
90
10
70
0
43
0
10
2.9943622846
20
7.7892259938
10
3.0037377958
20
7.8069067443
10
3.0125491482
20
7.8245488331
10
3.0207963417
20
7.8421522599
10
3.028477948
20
7.8597284335
10
3.0355953956
20
7.8772659452
10
3.0421529693
20
7.8947305693
10
3.0481520976
20
7.9121108973
10
3.0535913522
20
7.9294183377
10
3.0584707329
20
7.9466528906
0
LWPOLYLINE
5
EC
100
AcDbEntity
8
0
6
CONTINUOUS
62
7
370
-1
100
AcDbPolyline
90
10
70
0
43
0
10
2.6420683913
20
7.8388145585
10
2.6538647065
20
7.8549810702
10
2.665097103
20
7.8711896017
10
2.6757655809
20
7.887440153
10
2.6858703498
20
7.9037442199
10
2.6954112001
20
7.9200903066
10
2.7043875024
20
7.936443926
10
2.7127990468
20
7.9527935824
10
2.7206460432
20
7.9691507714
10
2.7279284915
20
7.9855154931
0
LWPOLYLINE
5
ED
100
AcDbEntity
8
0
6
CONTINUOUS
62
7
370
-1
100
AcDbPolyline
90
10
70
0
43
0
10
2.3004175305
20
7.9380350316
10
2.3143945107
20
7.9523582008
10
2.3278192922
20
7.9668032161
10
2.3406918749
20
7.9813700776
10
2.3530141025
20
7.996070134
10
2.3647841314
20
8.0108920366
10
2.3759964305
20
8.0258017387
10
2.3866491562
20
8.0407878915
10
2.3967441522
20
8.0558618439
10
2.4062814184
20
8.0710235959
0
LWPOLYLINE
5
EE
100
AcDbEntity
8
0
6
CONTINUOUS
62
7
370
-1
100
AcDbPolyline
90
10
70
0
43
0
10
1.9763647284
20
8.0848675703
10
1.9922378426
20
8.0970558187
10
2.0075817192
20
8.109443259
10
2.0223963581
20
8.1220298912
10
2.0366851994
20
8.1348266865
10
2.050444803
20
8.1478226737
10
2.0636648489
20
8.16098494
10
2.0763418972
20
8.1743025144
10
2.0884793877
20
8.187786368
10
2.1000773206
20
8.2014365007
0
LWPOLYLINE
5
EF
100
AcDbEntity
8
0
6
CONTINUOUS
62
7
370
-1
100
AcDbPolyline
90
10
70
0
43
0
10
1.6765067656
20
8.2763230877
10
1.693952883
20
8.2861282975
10
1.7109034976
20
8.2962059902
10
1.7273586094
20
8.3065561658
10
1.7433231847
20
8.317189194
10
1.7587922572
20
8.328094705
10
1.7737509279
20
8.3392415897
10
1.7881942306
20
8.3506194784
10
1.8021271314
20
8.3622387408
10
1.8155496305
20
8.3740993769
0
LWPOLYLINE
5
F0
100
AcDbEntity
8
0
6
CONTINUOUS
62
7
370
-1
100
AcDbPolyline
90
13
70
0
43
0
10
4.9548101216
20
9.8837204487
10
4.9762655204
20
9.8922332394
10
4.9965170065
20
9.9025825894
10
5.0155645798
20
9.9147684987
10
5.0335848616
20
9.9288871791
10
5.0504012307
20
9.9448424189
10
5.0654838232
20
9.9623455825
10
5.0788310781
20
9.9815122115
10
5.0904445563
20
10.0022267643
10
5.0997990768
20
10.0238539803
10
5.1067195792
20
10.046182106
10
5.1113811238
20
10.069422895
10
5.1137837106
20
10.0935763472
0
LWPOLYLINE
5
F1
100
AcDbEntity
8
0
6
CONTINUOUS
62
7
370
-1
100
AcDbPolyline
90
10
70
0
43
0
10
1.4069478855
20
8.5085041014
10
1.4256118534
20
8.515726667
10
1.4438241404
20
8.5232894593
10
1.4615847464
20
8.5311924784
10
1.4789000631
20
8.5394452817
10
1.4957636988
20
8.5480383118
10
1.5121564789
20
8.5569428965
10
1.5280720119
20
8.5661494785
10
1.5435166894
20
8.575667615
10
1.5584905113
20
8.5854973061
0
LWPOLYLINE
5
F2
100
AcDbEntity
8
0
6
CONTINUOUS
62
7
370
-1
100
AcDbPolyline
90
10
70
0
43
0
10
5.1565938775
20
11.7770687294
10
5.1370920036
20
11.7725758387
10
5.1179887939
20
11.7676819034
10
5.0992842483
20
11.7623869234
10
5.0809706802
20
11.7566823482
10
5.0630557764
20
11.7505767283
10
5.0455625966
20
11.7440957153
10
5.0284988275
20
11.7372478596
10
5.0118567825
20
11.7300246108
10
4.9956364616
20
11.7224259688
0
LWPOLYLINE
5
F3
100
AcDbEntity
8
0
6
CONTINUOUS
62
7
370
-1
100
AcDbPolyline
90
10
70
0
43
0
10
5.3498207783
20
11.4783491656
10
5.3298780003
20
11.4766774121
10
5.3102727541
20
11.4745519602
10
5.2910050396
20
11.4719728098
10
5.2720660316
20
11.4689325914
10
5.2534645553
20
11.4654386747
10
5.2352270865
20
11.4615131681
10
5.2173624506
20
11.4571634412
10
5.1998618221
20
11.4523821246
10
5.1827252012
20
11.4471692181
0
LWPOLYLINE
5
F4
100
AcDbEntity
8
0
6
CONTINUOUS
62
7
370
-1
100
AcDbPolyline
90
10
70
0
43
0
10
5.4985686814
20
11.1551710812
10
5.4785909769
20
11.1563544969
10
5.4588828005
20
11.1570407965
10
5.4394441521
20
11.1572299798
10
5.4202652477
20
11.1569160083
10
5.4013558714
20
11.1561049207
10
5.382745376
20
11.1548148325
10
5.3644435455
20
11.1530517824
10
5.346440596
20
11.1508097317
10
5.3287365272
20
11.1480886806
0
LWPOLYLINE
5
F5
100
AcDbEntity
8
0
6
CONTINUOUS
62
7
370
-1
100
AcDbPolyline
90
10
70
0
43
0
10
5.5998095086
20
10.8141134499
10
5.5802035659
20
10.8181279439
10
5.5607936609
20
10.8216120239
10
5.5415797936
20
10.8245656897
10
5.52255142
20
10.8269843567
10
5.503719084
20
10.8288726095
10
5.4851144179
20
10.8302442022
10
5.4667479655
20
10.8311037195
10
5.4486091829
20
10.8314465765
10
5.4306980701
20
10.8312727734
0
LWPOLYLINE
5
F6
100
AcDbEntity
8
0
6
CONTINUOUS
62
7
370
-1
100
AcDbPolyline
90
13
70
0
43
0
10
1.9478958931
20
11.647038014
10
1.925534418
20
11.6527621887
10
1.9030674263
20
11.6562929135
10
1.880494918
20
11.6576301885
10
1.8576174516
20
11.656799992
10
1.8346344686
20
11.6537763456
10
1.8121442936
20
11.6484813142
10
1.7900802757
20
11.6408205052
10
1.7685090658
20
11.6308883112
10
1.7482289411
20
11.6188899751
10
1.7295059941
20
11.6048939111
10
1.7120741323
20
11.5888317051
10
1.6959333557
20
11.5707033569
0
LWPOLYLINE
5
F7
100
AcDbEntity
8
0
6
CONTINUOUS
62
7
370
-1
100
AcDbPolyline
90
10
70
0
43
0
10
5.6514822884
20
10.4621192215
10
5.632647228
20
10.4688830704
10
5.6139307242
20
10.4750940049
10
5.5953327768
20
10.480752025
10
5.5768422968
20
10.4858540934
10
5.5584703733
20
10.4904032474
10
5.5402502738
20
10.4944085994
10
5.5221930875
20
10.4978731866
10
5.5042877252
20
10.5007939718
10
5.4865341869
20
10.5031709549
0
LWPOLYLINE
5
F8
100
AcDbEntity
8
0
6
CONTINUOUS
62
7
370
-1
100
AcDbPolyline
90
10
70
0
43
0
10
5.6525351122
20
10.1063539835
10
5.6348543616
20
10.1157294948
10
5.6172122729
20
10.1245408471
10
5.5996088461
20
10.1327880407
10
5.5820326725
20
10.140469647
10
5.5644951608
20
10.1475870945
10
5.5470305367
20
10.1541446683
10
5.5296502087
20
10.1601437966
10
5.5123427683
20
10.1655830511
10
5.4951082154
20
10.1704624319
0
LWPOLYLINE
5
F9
100
AcDbEntity
8
0
6
CONTINUOUS
62
7
370
-1
100
AcDbPolyline
90
10
70
0
43
0
10
5.6029465475
20
9.7540600903
10
5.5867800358
20
9.7658564055
10
5.5705715043
20
9.777088802
10
5.554320953
20
9.7877572799
10
5.5380168861
20
9.7978620488
10
5.5216707994
20
9.8074028991
10
5.50531718
20
9.8163792014
10
5.4889675236
20
9.8247907458
10
5.4726103346
20
9.8326377421
10
5.4562456129
20
9.8399201905
0
LWPOLYLINE
5
FA
100
AcDbEntity
8
0
6
CONTINUOUS
62
7
370
-1
100
AcDbPolyline
90
10
70
0
43
0
10
5.5037260744
20
9.4124092295
10
5.4894029052
20
9.4263862097
10
5.4749578899
20
9.4398109912
10
5.4603910284
20
9.4526835739
10
5.445690972
20
9.4650058015
10
5.4308690694
20
9.4767758304
10
5.4159593673
20
9.4879881295
10
5.4009732145
20
9.4986408552
10
5.3858992621
20
9.5087358512
10
5.3707375101
20
9.5182731174
0
LWPOLYLINE
5
FB
100
AcDbEntity
8
0
6
CONTINUOUS
62
7
370
-1
100
AcDbPolyline
90
10
70
0
43
0
10
5.3568935357
20
9.0883564274
10
5.3447052873
20
9.1042295416
10
5.332317847
20
9.1195734182
10
5.3197312148
20
9.1343880571
10
5.3069344195
20
9.1486768984
10
5.2939384323
20
9.162436502
10
5.280776166
20
9.1756565479
10
5.2674585916
20
9.1883335962
10
5.253974738
20
9.2004710867
10
5.2403246053
20
9.2120690196
0
LWPOLYLINE
5
FC
100
AcDbEntity
8
0
6
CONTINUOUS
62
7
370
-1
100
AcDbPolyline
90
10
70
0
43
0
10
5.1654380183
20
8.7884984646
10
5.1556328085
20
8.805944582
10
5.1455551158
20
8.8228951966
10
5.1352049402
20
8.8393503084
10
5.124571912
20
8.8553148837
10
5.113666401
20
8.8707839562
10
5.1025195163
20
8.8857426269
10
5.0911416276
20
8.9001859296
10
5.0795223652
20
8.9141188304
10
5.0676617291
20
8.9275413295
0
LWPOLYLINE
5
FD
100
AcDbEntity
8
0
6
CONTINUOUS
62
7
370
-1
100
AcDbPolyline
90
10
70
0
43
0
10
4.9332570046
20
8.5189395845
10
4.926034439
20
8.5376035524
10
4.9184716467
20
8.5558158394
10
4.9105686276
20
8.5735764454
10
4.9023158243
20
8.5908917621
10
4.8937227942
20
8.6077553978
10
4.8848182095
20
8.6241481779
10
4.8756116275
20
8.6400637109
10
4.866093491
20
8.6555083884
10
4.8562637999
20
8.6704822103
0
LWPOLYLINE
5
FE
100
AcDbEntity
8
0
6
CONTINUOUS
62
7
370
-1
100
AcDbPolyline
90
10
70
0
43
0
10
4.6650770304
20
8.2851672285
10
4.6605841397
20
8.3046691024
10
4.6556902044
20
8.3237723121
10
4.6503952244
20
8.3424768577
10
4.6446906492
20
8.3607904258
10
4.6385850293
20
8.3787053296
10
4.6321040163
20
8.3961985094
10
4.6252561606
20
8.4132622785
10
4.6180329118
20
8.4299043235
10
4.6104342698
20
8.4461246444
0
LWPOLYLINE
5
FF
100
AcDbEntity
8
0
6
CONTINUOUS
62
7
370
-1
100
AcDbPolyline
90
22
70
0
43
0
10
4.82861211
20
9.2454611772
10
4.8458574072
20
9.2728236622
10
4.8608150458
20
9.3001067378
10
4.8734850256
20
9.3273104039
10
4.8841628979
20
9.35472227
10
4.8925531115
20
9.3820547265
10
4.8977690128
20
9.4084449452
10
4.8995154631
20
9.4337624191
10
4.8980876011
20
9.4581376552
10
4.8934841896
20
9.481099346
10
4.8854140725
20
9.5027071964
10
4.8741684058
20
9.5229015015
10
4.8606194201
20
9.5410318391
10
4.8449493448
20
9.556732715
10
4.8269759503
20
9.5703696234
10
4.807024779
20
9.5823886255
10
4.7850478872
20
9.5928134986
10
4.7610932184
20
9.6016204654
10
4.7356301456
20
9.6091842547
10
4.7088151262
20
9.6156297761
10
4.6804917027
20
9.6208321199
10
4.6506598751
20
9.6247912862
0
LWPOLYLINE
5
100
100
AcDbEntity
8
0
6
CONTINUOUS
62
7
370
-1
100
AcDbPolyline
90
22
70
0
43
0
10
4.6599389171
20
11.5404503609
10
4.6392447374
20
11.5653070861
10
4.6179191551
20
11.5879635797
10
4.5959621703
20
11.6084198417
10
4.5731915804
20
11.6270458342
10
4.5497895881
20
11.6434715951
10
4.5263028007
20
11.6565872381
10
4.502764135
20
11.6660717407
10
4.4791406743
20
11.6722461255
10
4.4558802763
20
11.6749635736
10
4.4328361861
20
11.6739656291
10
4.4101551585
20
11.669510748
10
4.3887253158
20
11.6622274793
10
4.368950576
20
11.6521761895
10
4.3504270211
20
11.6392965121
10
4.3328310198
20
11.6240358965
10
4.3161251432
20
11.6063560933
10
4.3003468203
20
11.5862953519
10
4.2852847069
20
11.56441587
10
4.2708683551
20
11.5409050467
10
4.2571682129
20
11.5155754828
10
4.2441842803
20
11.4884271785
0
LWPOLYLINE
5
101
100
AcDbEntity
8
0
6
CONTINUOUS
62
7
370
-1
100
AcDbPolyline
90
16
70
0
43
0
10
8.4780973394
20
12.4050771562
10
8.4740865978
20
12.3916864788
10
8.4715493298
20
12.3783579693
10
8.4704855355
20
12.3650916278
10
8.4708621841
20
12.3516961371
10
8.4727123064
20
12.3383628144
10
8.4761349942
20
12.3256656105
10
8.4812324367
20
12.3136875847
10
8.4879024448
20
12.3023456777
10
8.4959375433
20
12.2919646633
10
8.5054771371
20
12.282553156
10
8.5163818214
20
12.2741025413
10
8.5280259062
20
12.2669117503
10
8.5402008282
20
12.2610804269
10
8.5531151509
20
12.2565089272
10
8.566768874
20
12.2531972513
0
LWPOLYLINE
5
102
100
AcDbEntity
8
0
6
CONTINUOUS
62
7
370
-1
100
AcDbPolyline
90
19
70
0
43
0
10
9.8450180074
20
11.6053521805
10
9.8779297458
20
11.5793992631
10
9.9085451407
20
11.5504414133
10
9.9368641921
20
11.5184786311
10
9.9633266723
20
11.482914952
10
9.987492809
20
11.4443463406
10
10.0080432857
20
11.4045606905
10
10.0246434115
20
11.3631701016
10
10.0376278773
20
11.3205624742
10
10.0466814395
20
11.2796894021
10
10.0514414013
20
11.2415132585
10
10.0522704594
20
11.2050716702
10
10.0499414599
20
11.1704291123
10
10.0443937389
20
11.1380034839
10
10.0356879604
20
11.1073768859
10
10.0247789629
20
11.077360096
10
10.011985026
20
11.0475567069
10
9.9969878702
20
11.018363126
10
9.9797874954
20
10.9897793532
0
LWPOLYLINE
5
103
100
AcDbEntity
8
0
6
CONTINUOUS
62
7
370
-1
100
AcDbPolyline
90
10
70
0
43
0
10
8.566768874
20
12.2531972513
10
8.719822534
20
12.2083966309
10
8.8701978552
20
12.1567923906
10
9.0178948376
20
12.0983845304
10
9.1630176889
20
12.0331622788
10
9.3054622014
20
11.9611364074
10
9.4449157519
20
11.8823392304
10
9.5812741325
20
11.7967815193
10
9.714641551
20
11.7044525027
10
9.8450180074
20
11.6053521805
0
LWPOLYLINE
5
104
100
AcDbEntity
8
0
6
CONTINUOUS
62
7
370
-1
100
AcDbPolyline
90
16
70
0
43
0
10
10.7499221802
20
11.011103272
10
10.6485943076
20
11.1780468985
10
10.5414505659
20
11.3382293496
10
10.4284909553
20
11.4916506254
10
10.3095744387
20
11.6383260838
10
10.1848420532
20
11.7782403669
10
10.0547169092
20
11.9113474003
10
9.9192272657
20
12.0376819927
10
9.7783448638
20
12.1572093354
10
9.6324080378
20
12.2697789291
10
9.4814480805
20
12.3754307574
10
9.3254336991
20
12.4741248366
10
9.1646093496
20
12.5655907161
10
8.9990565173
20
12.6497382455
10
8.8286937169
20
12.7266575752
10
8.6535209484
20
12.796348705
0
LWPOLYLINE
5
105
100
AcDbEntity
8
0
6
CONTINUOUS
62
7
370
-1
100
AcDbPolyline
90
25
70
0
43
0
10
8.6535209484
20
12.796348705
10
8.6397371924
20
12.8016810791
10
8.6260736785
20
12.8062248647
10
8.6125304069
20
12.8099800616
10
8.5990579153
20
12.8130833769
10
8.5857056659
20
12.8153981036
10
8.5726220449
20
12.8165141206
10
8.5596222329
20
12.8162956416
10
8.5468910493
20
12.814878453
10
8.5351313388
20
12.8122597921
10
8.5245739813
20
12.8084309697
10
8.514988097
20
12.803400675
10
8.5063838906
20
12.7971922136
10
8.4986735632
20
12.7897259052
10
8.4919449137
20
12.78108143
10
8.4864715443
20
12.7715211336
10
8.4823674956
20
12.7610967285
10
8.4795187269
20
12.7497565022
10
8.4778567181
20
12.7376076625
10
8.4775640809
20
12.7243604597
10
8.4784582036
20
12.7103046435
10
8.4799227313
20
12.6964166708
10
8.4817522122
20
12.6830220274
10
8.4841520981
20
12.6697952276
10
8.4871223889
20
12.6567362714
0
LWPOLYLINE
5
106
100
AcDbEntity
8
0
6
CONTINUOUS
62
7
370
-1
100
AcDbPolyline
90
19
70
0
43
0
10
1.2731648632
20
4.2907787937
10
1.2697840631
20
4.3041372949
10
1.2675532627
20
4.3172547102
10
1.2664724619
20
4.3301310398
10
1.2664438727
20
4.3428870893
10
1.2675652832
20
4.3554020531
10
1.2701300571
20
4.3673135134
10
1.2743025448
20
4.378588704
10
1.2799183959
20
4.3892603912
10
1.2867779232
20
4.3990644568
10
1.294911241
20
4.4080015454
10
1.3042882351
20
4.4160710125
10
1.3146188747
20
4.4230068068
10
1.3259839681
20
4.4287069027
10
1.3383027071
20
4.4332733258
10
1.351042636
20
4.4367461012
10
1.3640262697
20
4.4391385706
10
1.3774310932
20
4.4404373922
10
1.6053453441
20
4.44444257
0
LWPOLYLINE
5
107
100
AcDbEntity
8
0
6
CONTINUOUS
62
7
370
-1
100
AcDbPolyline
90
40
70
0
43
0
10
5.0421856833
20
2.5784851724
10
9.8223491205
20
2.5784517036
10
9.8309014843
20
2.5785056752
10
9.8391732347
20
2.5786470873
10
9.8471451542
20
2.5788550178
10
9.8548364603
20
2.5791503887
10
9.8623048059
20
2.5795959666
10
9.8695669727
20
2.5801859706
10
9.876606179
20
2.5809261816
10
9.8834297329
20
2.5818967087
10
9.8900955964
20
2.5830928941
10
9.8965458076
20
2.5845193955
10
9.9026137887
20
2.5862702948
10
9.9083269027
20
2.5883255412
10
9.9136577865
20
2.5907051855
10
9.9183577731
20
2.5935634623
10
9.9224797862
20
2.5970115168
10
9.925970902
20
2.6009382038
10
9.9284236818
20
2.6051643218
10
9.9296053816
20
2.6097754855
10
9.9297487454
20
2.6146860802
10
9.9291445664
20
2.6194600606
10
9.9278024127
20
2.6239128625
10
9.9257127162
20
2.62822905
10
9.9231375651
20
2.6325262705
10
9.9201256806
20
2.6368423427
10
9.9166283415
20
2.6411394479
10
9.9127614725
20
2.6454217763
10
9.9084693491
20
2.649738814
10
9.9038076958
20
2.6540410749
10
9.8990596112
20
2.6581842923
10
9.8944044722
20
2.6620327763
10
9.8896629019
20
2.6657222167
10
9.8845798679
20
2.6695154161
10
9.8790258873
20
2.6735189069
10
9.873130443
20
2.6776261566
10
9.8670269522
20
2.6817803707
10
9.8607598872
20
2.6859626175
10
9.8542847756
20
2.6901918286
10
9.7833822676
20
2.7352433271
0
LWPOLYLINE
5
108
100
AcDbEntity
8
0
6
CONTINUOUS
62
7
370
-1
100
AcDbPolyline
90
7
70
0
43
0
10
5.0036212868
20
2.5916676321
10
5.0093645804
20
2.5876596117
10
5.0153815162
20
2.5843759688
10
5.0216720945
20
2.5818167035
10
5.0282363151
20
2.5799818156
10
5.035074178
20
2.5788713053
10
5.0421856833
20
2.5784851724
0
LWPOLYLINE
5
109
100
AcDbEntity
8
0
6
CONTINUOUS
62
7
370
-1
100
AcDbPolyline
90
16
70
0
43
0
10
5.0036212868
20
2.5916676321
10
4.8142999496
20
2.731713542
10
4.615156692
20
2.8634975905
10
4.4061915138
20
2.9870197776
10
4.188674558
20
3.1022961116
10
3.9613356816
20
3.2093105841
10
3.7203644562
20
3.3080151706
10
3.4654487579
20
3.3989011662
10
3.1969007105
20
3.4814772757
10
2.9118462562
20
3.5542215893
10
2.6095005161
20
3.6171894247
10
2.2906483691
20
3.6703254643
10
1.9547703944
20
3.7119418451
10
1.6016934516
20
3.7414759463
10
1.2315906812
20
3.7594903887
10
0.8444620831
20
3.7659851724
0
LWPOLYLINE
5
10A
100
AcDbEntity
8
0
6
CONTINUOUS
62
7
370
-1
100
AcDbPolyline
90
3
70
0
43
0
10
3.7587411955
20
3.9180588634
10
3.7538911279
20
3.9240401861
10
3.7488715808
20
3.9301399779
0
LINE
5
10B
100
AcDbEntity
8
0
6
CONTINUOUS
62
7
370
-1
100
AcDbLine
10
8.1723992339
20
3.6229191752
11
8.167980647
21
3.6220588832
0
LWPOLYLINE
5
10C
100
AcDbEntity
8
0
6
CONTINUOUS
62
7
370
-1
100
AcDbPolyline
90
7
70
0
43
0
10
4.8796858024
20
3.8839493465
10
4.8296546673
20
3.8622386765
10
4.779758922
20
3.8401335484
10
4.7299985664
20
3.8176339623
10
4.6803736005
20
3.7947399183
10
4.6308840243
20
3.7714514162
10
4.5815298379
20
3.7477684561
0
LWPOLYLINE
5
10D
100
AcDbEntity
8
0
6
CONTINUOUS
62
7
370
-1
100
AcDbPolyline
90
10
70
0
43
0
10
4.8796858024
20
3.8839493465
10
4.8977685203
20
3.8910220541
10
4.9158784839
20
3.8966390738
10
4.9340156931
20
3.9008004058
10
4.9520868021
20
3.9035162044
10
4.9701851567
20
3.9047763153
10
4.9885907952
20
3.9045502752
10
5.0073970637
20
3.90282793
10
5.0265106162
20
3.8996194339
10
5.0459314526
20
3.894924787
0
LINE
5
10E
100
AcDbEntity
8
0
6
CONTINUOUS
62
7
370
-1
100
AcDbLine
10
5.4685626354
20
3.0784851724
11
5.7532868025
21
3.0784851724
0
LWPOLYLINE
5
10F
100
AcDbEntity
8
0
6
CONTINUOUS
62
7
370
-1
100
AcDbPolyline
90
13
70
0
43
0
10
5.4685626354
20
3.0784851724
10
5.4570246042
20
3.0785556959
10
5.445436437
20
3.0792493531
10
5.433798134
20
3.0805661441
10
5.422059543
20
3.0825311832
10
5.4102708162
20
3.0851193562
10
5.3985824092
20
3.0882553198
10
5.3869586374
20
3.091917934
10
5.3754351855
20
3.0961283389
10
5.3642695639
20
3.1008746114
10
5.3535476097
20
3.1061527773
10
5.3431834858
20
3.1119668108
10
5.2540293739
20
3.168338771
0
LWPOLYLINE
5
110
100
AcDbEntity
8
0
6
CONTINUOUS
62
7
370
-1
100
AcDbPolyline
90
28
70
0
43
0
10
4.5854874572
20
3.5209559418
10
4.5697675612
20
3.5276453839
10
4.5548541737
20
3.5345519498
10
4.5407472946
20
3.5416756395
10
4.5273476831
20
3.5489377826
10
4.51475458
20
3.5564170495
10
4.5032657076
20
3.5643494513
10
4.4928341134
20
3.5728290094
10
4.48350675
20
3.5817617024
10
4.4757221976
20
3.5911014775
10
4.4695503221
20
3.6009610645
10
4.4649212575
20
3.6112277336
10
4.4620639867
20
3.621517242
10
4.4611295213
20
3.6317903624
10
4.4619668496
20
3.6420863222
10
4.4643519192
20
3.6521385602
10
4.4683152306
20
3.6618882088
10
4.4738262831
20
3.6713941356
10
4.4805695224
20
3.6805663832
10
4.4885819272
20
3.6893938656
10
4.4978265186
20
3.6978876688
10
4.5078768058
20
3.705991093
10
4.5186911924
20
3.7136308617
10
4.5303112748
20
3.7208802514
10
4.5424353507
20
3.7279023927
10
4.5549628528
20
3.7347516623
10
4.5679943486
20
3.7413736834
10
4.5815298379
20
3.7477684561
0
LWPOLYLINE
5
111
100
AcDbEntity
8
0
6
CONTINUOUS
62
7
370
-1
100
AcDbPolyline
90
9
70
0
43
0
10
4.5854874572
20
3.5209559418
10
4.6726284244
20
3.4814927175
10
4.7587363702
20
3.4407121136
10
4.8438112947
20
3.3986141301
10
4.9278306125
20
3.3552004168
10
5.010816909
20
3.310469324
10
5.0928379397
20
3.264415902
10
5.1739162897
20
3.2170385011
10
5.2540293739
20
3.168338771
0
LWPOLYLINE
5
112
100
AcDbEntity
8
0
6
CONTINUOUS
62
7
370
-1
100
AcDbPolyline
90
31
70
0
43
0
10
3.6852470615
20
3.8324444418
10
3.6937841147
20
3.8301620252
10
3.7021120546
20
3.8281043508
10
3.7102308812
20
3.8262714185
10
3.7181449761
20
3.8246254924
10
3.7258499578
20
3.8232043084
10
3.7333326807
20
3.8221210745
10
3.7405999361
20
3.8213746344
10
3.7476449329
20
3.8209661444
10
3.7544341523
20
3.821012281
10
3.7610235415
20
3.8214984657
10
3.7673571532
20
3.8224392769
10
3.7732336276
20
3.823995127
10
3.7787192848
20
3.8262329285
10
3.7837478046
20
3.8290857688
10
3.7879188662
20
3.8325133224
10
3.7911114504
20
3.8366082654
10
3.7934465764
20
3.8412779217
10
3.7948869819
20
3.8462039369
10
3.7953346316
20
3.8513444729
10
3.7948875608
20
3.8567413679
10
3.7938026125
20
3.8622017819
10
3.7920900124
20
3.8676834435
10
3.7897395348
20
3.8732286241
10
3.7869773453
20
3.8787712989
10
3.7838339735
20
3.8842763733
10
3.7802788897
20
3.889778942
10
3.7764466712
20
3.895318264
10
3.7723462917
20
3.9008801873
10
3.7679687774
20
3.906478864
10
3.7587411955
20
3.9180588634
0
LWPOLYLINE
5
113
100
AcDbEntity
8
0
6
CONTINUOUS
62
7
370
-1
100
AcDbPolyline
90
9
70
0
43
0
10
3.557662329
20
4.2445198016
10
3.2903957162
20
4.2916234636
10
3.0297592672
20
4.332433962
10
2.775752982
20
4.3669512967
10
2.5283654386
20
4.3952219976
10
2.2876080589
20
4.4171995348
10
2.0535151093
20
4.4327443192
10
1.8260980117
20
4.441809821
10
1.6053453441
20
4.44444257
0
LWPOLYLINE
5
114
100
AcDbEntity
8
0
6
CONTINUOUS
62
7
370
-1
100
AcDbPolyline
90
16
70
0
43
0
10
3.557662329
20
4.2445198016
10
3.5704021187
20
4.2419923734
10
3.582367373
20
4.2384627377
10
3.5935580918
20
4.2339308945
10
3.6040195337
20
4.2282739933
10
3.6137064401
20
4.2216148845
10
3.6224830351
20
4.2143221198
10
3.6303659528
20
4.2063134686
10
3.6373385591
20
4.1976711616
10
3.6432151753
20
4.1890104423
10
3.6478084366
20
4.1804686313
10
3.6513057077
20
4.171908408
10
3.6540834048
20
4.1635330547
10
3.6562669997
20
4.1554103323
10
3.6577310204
20
4.1474724799
10
3.6584754671
20
4.1397194976
0
LWPOLYLINE
5
115
100
AcDbEntity
8
0
6
CONTINUOUS
62
7
370
-1
100
AcDbPolyline
90
19
70
0
43
0
10
5.4259220136
20
3.783918446
10
5.4403697908
20
3.779914684
10
5.4548722753
20
3.7746399516
10
5.4694294672
20
3.7680942489
10
5.4842598699
20
3.7602554589
10
5.49914498
20
3.7511456986
10
5.5134292865
20
3.7408313182
10
5.5270983873
20
3.7291121695
10
5.5401666845
20
3.7161884008
10
5.5520218736
20
3.702726807
10
5.5625176741
20
3.6887637977
10
5.5718003666
20
3.6742629633
10
5.579696488
20
3.6597818699
10
5.5860139393
20
3.6454109382
10
5.5909448195
20
3.6310597476
10
5.5948919631
20
3.6170146016
10
5.5979896481
20
3.603370935
10
5.6001035963
20
3.5900333131
10
5.6012338079
20
3.5770017359
0
LINE
5
116
100
AcDbEntity
8
0
6
CONTINUOUS
62
7
370
-1
100
AcDbLine
10
5.1730157986
20
3.8587538199
11
5.0459314526
21
3.894924787
0
LINE
5
117
100
AcDbEntity
8
0
6
CONTINUOUS
62
7
370
-1
100
AcDbLine
10
5.299679319
20
3.8217517062
11
5.1730157986
21
3.8587538199
0
LINE
5
118
100
AcDbEntity
8
0
6
CONTINUOUS
62
7
370
-1
100
AcDbLine
10
5.4259220136
20
3.783918446
11
5.299679319
21
3.8217517062
0
LWPOLYLINE
5
119
100
AcDbEntity
8
0
6
CONTINUOUS
62
7
370
-1
100
AcDbPolyline
90
31
70
0
43
0
10
5.7964816977
20
3.1837624614
10
5.8018355676
20
3.17864318
10
5.8069350865
20
3.1736103968
10
5.8117802543
20
3.1686641117
10
5.8163918427
20
3.163845487
10
5.8207490799
20
3.1591133605
10
5.8247896516
20
3.1543442452
10
5.8285422468
20
3.1495115269
10
5.8319781763
20
3.1446418198
10
5.8349490583
20
3.1396914801
10
5.8374832819
20
3.1346075845
10
5.839552458
20
3.1294430563
10
5.8409230362
20
3.1243130211
10
5.8415717609
20
3.1192027899
10
5.8415218878
20
3.1141270517
10
5.8406096333
20
3.1092449986
10
5.8387461787
20
3.1045318586
10
5.8360203426
20
3.1000124038
10
5.8325347973
20
3.0959201426
10
5.8282173295
20
3.0923211982
10
5.8231401526
20
3.0891494474
10
5.817622578
20
3.086440029
10
5.8117081811
20
3.0842442973
10
5.8053533866
20
3.0825108981
10
5.79874678
20
3.0811209072
10
5.7919849066
20
3.0800817024
10
5.784971221
20
3.079385906
10
5.7776046728
20
3.0788924605
10
5.7698515786
20
3.0785543469
10
5.7617456219
20
3.0784185842
10
5.7532868025
20
3.0784851724
0
LWPOLYLINE
5
11A
100
AcDbEntity
8
0
6
CONTINUOUS
62
7
370
-1
100
AcDbPolyline
90
19
70
0
43
0
10
1.4107366173
20
4.0501554853
10
1.3967494129
20
4.0493459529
10
1.3831298597
20
4.0497967602
10
1.3698779578
20
4.0515079073
10
1.3567830703
20
4.0545056156
10
1.344055834
20
4.0587636637
10
1.3323281593
20
4.064203387
10
1.321727615
20
4.070944181
10
1.3121266325
20
4.0788666502
10
1.3037744163
20
4.0875339443
10
1.2967502434
20
4.0969487337
10
1.290974837
20
4.1071083479
10
1.2864595712
20
4.1175679255
10
1.2833730517
20
4.12834017
10
1.2815466728
20
4.1394123779
10
1.2804859919
20
4.1503015782
10
1.2800261948
20
4.1608467804
10
1.2803320958
20
4.171208975
10
1.2814036949
20
4.1813881619
0
LWPOLYLINE
5
11B
100
AcDbEntity
8
0
6
CONTINUOUS
62
7
370
-1
100
AcDbPolyline
90
10
70
0
43
0
10
1.4107366173
20
4.0501554853
10
1.6990342304
20
4.0562970182
10
1.978465716
20
4.0546243048
10
2.2490310741
20
4.045137345
10
2.5107668782
20
4.0275276934
10
2.7636365548
20
4.0021037955
10
3.0075303835
20
3.9697909878
10
3.2424117908
20
3.9308977156
10
3.4683173501
20
3.8851155336
10
3.6852470615
20
3.8324444418
0
LWPOLYLINE
5
11C
100
AcDbEntity
8
0
6
CONTINUOUS
62
7
370
-1
100
AcDbPolyline
90
10
70
0
43
0
10
5.342040106
20
4.3512673104
10
5.3321445988
20
4.3593554146
10
5.3215812647
20
4.36696199
10
5.3103501039
20
4.3740870369
10
5.2982627978
20
4.3808311791
10
5.2855076649
20
4.3870937926
10
5.2726496605
20
4.3925730055
10
5.2598771032
20
4.3971681938
10
5.2470016745
20
4.4009799815
10
5.2340233743
20
4.4040083686
0
LWPOLYLINE
5
11D
100
AcDbEntity
8
0
6
CONTINUOUS
62
7
370
-1
100
AcDbPolyline
90
19
70
0
43
0
10
9.4274716311
20
2.9431282025
10
9.4058011689
20
2.9541588468
10
9.3853105952
20
2.96695461
10
9.3659999098
20
2.9815154921
10
9.347449312
20
2.9980608972
10
9.3300786027
20
3.0163714212
10
9.315147184
20
3.0357888522
10
9.3030216509
20
3.0563025123
10
9.2933354085
20
3.0779230793
10
9.2862480738
20
3.1000243743
10
9.2817257274
20
3.1225348028
10
9.2798022889
20
3.1455259592
10
9.280739133
20
3.1685864474
10
9.2849701881
20
3.1919333221
10
9.2920615259
20
3.2153495285
10
9.3009727372
20
3.2377725061
10
9.3113570187
20
3.2588480679
10
9.3235611738
20
3.2789304007
10
9.3375852022
20
3.2980195047
0
LWPOLYLINE
5
11E
100
AcDbEntity
8
0
6
CONTINUOUS
62
7
370
-1
100
AcDbPolyline
90
6
70
0
43
0
10
9.4274716311
20
2.9431282025
10
9.50329561
20
2.9010167927
10
9.5767986631
20
2.8591726003
10
9.6479807904
20
2.8175956252
10
9.7168419919
20
2.7762858675
10
9.7833822676
20
2.7352433271
0
LWPOLYLINE
5
11F
100
AcDbEntity
8
0
6
CONTINUOUS
62
7
370
-1
100
AcDbPolyline
90
16
70
0
43
0
10
0.7460459968
20
4.6297720758
10
0.9333735577
20
4.6693249194
10
1.1353949125
20
4.7022986172
10
1.3521100611
20
4.7286931693
10
1.5827888662
20
4.7489257782
10
1.8281614652
20
4.7625792413
10
2.0904182701
20
4.7684019509
10
2.36964956
20
4.7665811992
10
2.6657650558
20
4.7569296939
10
2.9806843319
20
4.7376339504
10
3.3163396594
20
4.7085226276
10
3.6707987672
20
4.6697670667
10
4.0401844165
20
4.6200678064
10
4.4232041943
20
4.5589916932
10
4.8211505135
20
4.4869718805
10
5.2340233743
20
4.4040083686
0
LWPOLYLINE
5
120
100
AcDbEntity
8
0
6
CONTINUOUS
62
7
370
-1
100
AcDbPolyline
90
16
70
0
43
0
10
9.3551552976
20
4.0017169458
10
9.3512590816
20
4.0090679086
10
9.346524051
20
4.0159936912
10
9.340950206
20
4.0224942935
10
9.3344625347
20
4.0288071065
10
9.3271360489
20
4.0346947392
10
9.3191957839
20
4.0394450192
10
9.3104603004
20
4.0428679568
10
9.3011110377
20
4.0451535417
10
9.2919173482
20
4.04615957
10
9.2830002829
20
4.0456319901
10
9.2742387907
20
4.0438248536
10
9.2660390708
20
4.0413581119
10
9.2585365228
20
4.0384384154
10
9.2515957472
20
4.0348591136
10
9.2452167438
20
4.0306202067
0
ARC
5
121
100
AcDbEntity
8
0
6
CONTINUOUS
62
7
370
-1
100
AcDbCircle
10
1.3624900441
20
8.7728385899
40
0.065
100
AcDbArc
50
39.8438637115
51
115.865691405
0
ARC
5
122
100
AcDbEntity
8
0
6
CONTINUOUS
62
7
370
-1
100
AcDbCircle
10
1.3707140568
20
8.7630375932
40
0.065
100
AcDbArc
50
324.134308595
51
40.1561362885
0
ARC
5
123
100
AcDbEntity
8
0
6
CONTINUOUS
62
7
370
-1
100
AcDbCircle
10
1.5948827209
20
8.5316400218
40
0.065
100
AcDbArc
50
48.0256818933
51
124.047509587
0
ARC
5
124
100
AcDbEntity
8
0
6
CONTINUOUS
62
7
370
-1
100
AcDbCircle
10
1.6044178523
20
8.5231091841
40
0.065
100
AcDbArc
50
332.316126777
51
48.3379544703
0
ARC
5
125
100
AcDbEntity
8
0
6
CONTINUOUS
62
7
370
-1
100
AcDbCircle
10
1.8592361106
20
8.3259694334
40
0.065
100
AcDbArc
50
56.2075000751
51
132.229327769
0
ARC
5
126
100
AcDbEntity
8
0
6
CONTINUOUS
62
7
370
-1
100
AcDbCircle
10
1.8698882529
20
8.3188824181
40
0.065
100
AcDbArc
50
340.497944959
51
56.5197726521
0
ARC
5
127
100
AcDbEntity
8
0
6
CONTINUOUS
62
7
370
-1
100
AcDbCircle
10
1.1569128696
20
8.8299230121
40
0.045
100
AcDbArc
50
149.560591013
51
215.77668831
0
ARC
5
128
100
AcDbEntity
8
0
6
CONTINUOUS
62
7
370
-1
100
AcDbCircle
10
1.1636217083
20
8.82065821
40
0.045
100
AcDbArc
50
216.041493508
51
282.257590805
0
ARC
5
129
100
AcDbEntity
8
0
6
CONTINUOUS
62
7
370
-1
100
AcDbCircle
10
1.3832740653
20
8.5588867244
40
0.045
100
AcDbArc
50
157.742409195
51
223.958506492
0
ARC
5
12A
100
AcDbEntity
8
0
6
CONTINUOUS
62
7
370
-1
100
AcDbCircle
10
1.3912331366
20
8.550670992
40
0.045
100
AcDbArc
50
224.22331169
51
290.439408987
0
ARC
5
12B
100
AcDbEntity
8
0
6
CONTINUOUS
62
7
370
-1
100
AcDbCircle
10
1.6459037159
20
8.3228237524
40
0.045
100
AcDbArc
50
165.924227377
51
232.140324674
0
ARC
5
12C
100
AcDbEntity
8
0
6
CONTINUOUS
62
7
370
-1
100
AcDbCircle
10
1.654950996
20
8.3158243382
40
0.045
100
AcDbArc
50
232.405129871
51
298.621227169
0
ARC
5
12D
100
AcDbEntity
8
0
6
CONTINUOUS
62
7
370
-1
100
AcDbCircle
10
0.8354695962
20
9.9860474012
40
0.065
100
AcDbArc
50
7.1165909842
51
83.1384186778
0
ARC
5
12E
100
AcDbEntity
8
0
6
CONTINUOUS
62
7
370
-1
100
AcDbCircle
10
0.8370892571
20
9.9733560411
40
0.065
100
AcDbArc
50
291.407035868
51
7.4288635612
0
ARC
5
12F
100
AcDbEntity
8
0
6
CONTINUOUS
62
7
370
-1
100
AcDbCircle
10
0.9005689656
20
9.6574972868
40
0.065
100
AcDbArc
50
15.298409166
51
91.3202368596
0
ARC
5
130
100
AcDbEntity
8
0
6
CONTINUOUS
62
7
370
-1
100
AcDbCircle
10
0.9039783095
20
9.6451656083
40
0.065
100
AcDbArc
50
299.58885405
51
15.6106817431
0
ARC
5
131
100
AcDbEntity
8
0
6
CONTINUOUS
62
7
370
-1
100
AcDbCircle
10
1.0117632736
20
9.3415559451
40
0.065
100
AcDbArc
50
23.4802273479
51
99.5020550414
0
ARC
5
132
100
AcDbEntity
8
0
6
CONTINUOUS
62
7
370
-1
100
AcDbCircle
10
1.0168928962
20
9.3298349855
40
0.065
100
AcDbArc
50
307.770672231
51
23.7924999249
0
ARC
5
133
100
AcDbEntity
8
0
6
CONTINUOUS
62
7
370
-1
100
AcDbCircle
10
1.1667889248
20
9.0446550307
40
0.065
100
AcDbArc
50
31.6620455297
51
107.683873223
0
ARC
5
134
100
AcDbEntity
8
0
6
CONTINUOUS
62
7
370
-1
100
AcDbCircle
10
1.1735344017
20
9.0337833949
40
0.065
100
AcDbArc
50
315.952490413
51
31.9743181067
0
ARC
5
135
100
AcDbEntity
8
0
6
CONTINUOUS
62
7
370
-1
100
AcDbCircle
10
0.6933892405
20
10.1452132847
40
0.045
100
AcDbArc
50
116.833318286
51
183.049415583
0
ARC
5
136
100
AcDbEntity
8
0
6
CONTINUOUS
62
7
370
-1
100
AcDbCircle
10
0.6940241447
20
10.1337921652
40
0.045
100
AcDbArc
50
183.31422078
51
249.530318078
0
ARC
5
137
100
AcDbEntity
8
0
6
CONTINUOUS
62
7
370
-1
100
AcDbCircle
10
0.7372831161
20
9.7948229483
40
0.045
100
AcDbArc
50
125.015136468
51
191.231233765
0
ARC
5
138
100
AcDbEntity
8
0
6
CONTINUOUS
62
7
370
-1
100
AcDbCircle
10
0.7395369526
20
9.7836084356
40
0.045
100
AcDbArc
50
191.496038962
51
257.712136259
0
ARC
5
139
100
AcDbEntity
8
0
6
CONTINUOUS
62
7
370
-1
100
AcDbCircle
10
0.8305959593
20
9.4542458301
40
0.045
100
AcDbArc
50
133.19695465
51
199.413051947
0
ARC
5
13A
100
AcDbEntity
8
0
6
CONTINUOUS
62
7
370
-1
100
AcDbCircle
10
0.8344228466
20
9.4434662193
40
0.045
100
AcDbArc
50
199.677857144
51
265.893954441
0
ARC
5
13B
100
AcDbEntity
8
0
6
CONTINUOUS
62
7
370
-1
100
AcDbCircle
10
0.9714281898
20
9.130415098
40
0.045
100
AcDbArc
50
141.378772831
51
207.594870129
0
ARC
5
13C
100
AcDbEntity
8
0
6
CONTINUOUS
62
7
370
-1
100
AcDbCircle
10
0.9767502235
20
9.120289831
40
0.045
100
AcDbArc
50
207.859675326
51
274.075772623
0
ARC
5
13D
100
AcDbEntity
8
0
6
CONTINUOUS
62
7
370
-1
100
AcDbCircle
10
2.1501687405
20
8.1600136851
40
0.065
100
AcDbArc
50
64.389318257
51
140.411145951
0
ARC
5
13E
100
AcDbEntity
8
0
6
CONTINUOUS
62
7
370
-1
100
AcDbCircle
10
2.1617210468
20
8.1545147632
40
0.065
100
AcDbArc
50
348.67976314
51
64.7015908339
0
ARC
5
13F
100
AcDbEntity
8
0
6
CONTINUOUS
62
7
370
-1
100
AcDbCircle
10
2.4617580612
20
8.0371511571
40
0.065
100
AcDbArc
50
72.5711364388
51
148.592964132
0
ARC
5
140
100
AcDbEntity
8
0
6
CONTINUOUS
62
7
370
-1
100
AcDbCircle
10
2.4739753598
20
8.0333522709
40
0.065
100
AcDbArc
50
356.861581322
51
72.8834090158
0
ARC
5
141
100
AcDbEntity
8
0
6
CONTINUOUS
62
7
370
-1
100
AcDbCircle
10
2.7876610126
20
7.9598829763
40
0.065
100
AcDbArc
50
80.7529546206
51
156.774782314
0
ARC
5
142
100
AcDbEntity
8
0
6
CONTINUOUS
62
7
370
-1
100
AcDbCircle
10
2.8002945947
20
7.9578614602
40
0.065
100
AcDbArc
50
5.043399504
51
81.0652271976
0
ARC
5
143
100
AcDbEntity
8
0
6
CONTINUOUS
62
7
370
-1
100
AcDbCircle
10
3.1212431506
20
7.9297821
40
0.065
100
AcDbArc
50
88.9347728024
51
164.956600496
0
ARC
5
144
100
AcDbEntity
8
0
6
CONTINUOUS
62
7
370
-1
100
AcDbCircle
10
3.1340358328
20
7.9295791062
40
0.065
100
AcDbArc
50
13.2252176858
51
89.2470453794
0
ARC
5
145
100
AcDbEntity
8
0
6
CONTINUOUS
62
7
370
-1
100
AcDbCircle
10
1.9394554391
20
8.1265396573
40
0.045
100
AcDbArc
50
174.106045559
51
240.322142856
0
ARC
5
146
100
AcDbEntity
8
0
6
CONTINUOUS
62
7
370
-1
100
AcDbCircle
10
1.9494067513
20
8.1208990492
40
0.045
100
AcDbArc
50
240.586948053
51
306.80304535
0
ARC
5
147
100
AcDbEntity
8
0
6
CONTINUOUS
62
7
370
-1
100
AcDbCircle
10
2.2579533682
20
7.9740302172
40
0.045
100
AcDbArc
50
182.287863741
51
248.503961038
0
ARC
5
148
100
AcDbEntity
8
0
6
CONTINUOUS
62
7
370
-1
100
AcDbCircle
10
2.2686061327
20
7.9698632418
40
0.045
100
AcDbArc
50
248.768766235
51
314.984863532
0
ARC
5
149
100
AcDbEntity
8
0
6
CONTINUOUS
62
7
370
-1
100
AcDbCircle
10
2.5949138039
20
7.8684000846
40
0.045
100
AcDbArc
50
190.469681922
51
256.68577922
0
ARC
5
14A
100
AcDbEntity
8
0
6
CONTINUOUS
62
7
370
-1
100
AcDbCircle
10
2.606051161
20
7.8657915695
40
0.045
100
AcDbArc
50
256.950584417
51
323.166681714
0
ARC
5
14B
100
AcDbEntity
8
0
6
CONTINUOUS
62
7
370
-1
100
AcDbCircle
10
2.9434772035
20
7.8117995844
40
0.045
100
AcDbArc
50
198.651500104
51
264.867597401
0
ARC
5
14C
100
AcDbEntity
8
0
6
CONTINUOUS
62
7
370
-1
100
AcDbCircle
10
2.9548724288
20
7.8108026314
40
0.045
100
AcDbArc
50
265.132402599
51
331.348499896
0
ARC
5
14D
100
AcDbEntity
8
0
6
CONTINUOUS
62
7
370
-1
100
AcDbCircle
10
1.0480219861
20
11.2915923655
40
0.065
100
AcDbArc
50
334.389318257
51
50.4111459505
0
ARC
5
14E
100
AcDbEntity
8
0
6
CONTINUOUS
62
7
370
-1
100
AcDbCircle
10
1.0425230642
20
11.2800400592
40
0.065
100
AcDbArc
50
258.67976314
51
334.701590834
0
ARC
5
14F
100
AcDbEntity
8
0
6
CONTINUOUS
62
7
370
-1
100
AcDbCircle
10
0.9251594581
20
10.9800030448
40
0.065
100
AcDbArc
50
342.571136439
51
58.5929641323
0
ARC
5
150
100
AcDbEntity
8
0
6
CONTINUOUS
62
7
370
-1
100
AcDbCircle
10
0.921360572
20
10.9677857462
40
0.065
100
AcDbArc
50
266.861581322
51
342.883409016
0
ARC
5
151
100
AcDbEntity
8
0
6
CONTINUOUS
62
7
370
-1
100
AcDbCircle
10
0.8478912773
20
10.6541000934
40
0.065
100
AcDbArc
50
350.752954621
51
66.7747823141
0
ARC
5
152
100
AcDbEntity
8
0
6
CONTINUOUS
62
7
370
-1
100
AcDbCircle
10
0.8458697612
20
10.6414665113
40
0.065
100
AcDbArc
50
275.043399504
51
351.065227198
0
ARC
5
153
100
AcDbEntity
8
0
6
CONTINUOUS
62
7
370
-1
100
AcDbCircle
10
0.817790401
20
10.3205179554
40
0.065
100
AcDbArc
50
358.934772802
51
74.956600496
0
ARC
5
154
100
AcDbEntity
8
0
6
CONTINUOUS
62
7
370
-1
100
AcDbCircle
10
0.8175874072
20
10.3077252732
40
0.065
100
AcDbArc
50
283.225217686
51
359.247045379
0
ARC
5
155
100
AcDbEntity
8
0
6
CONTINUOUS
62
7
370
-1
100
AcDbCircle
10
1.0145479583
20
11.5023056669
40
0.045
100
AcDbArc
50
84.1060455588
51
150.322142856
0
ARC
5
156
100
AcDbEntity
8
0
6
CONTINUOUS
62
7
370
-1
100
AcDbCircle
10
1.0089073502
20
11.4923543547
40
0.045
100
AcDbArc
50
150.586948053
51
216.80304535
0
ARC
5
157
100
AcDbEntity
8
0
6
CONTINUOUS
62
7
370
-1
100
AcDbCircle
10
0.8620385182
20
11.1838077378
40
0.045
100
AcDbArc
50
92.2878637406
51
158.503961038
0
ARC
5
158
100
AcDbEntity
8
0
6
CONTINUOUS
62
7
370
-1
100
AcDbCircle
10
0.8578715428
20
11.1731549733
40
0.045
100
AcDbArc
50
158.768766235
51
224.984863532
0
ARC
5
159
100
AcDbEntity
8
0
6
CONTINUOUS
62
7
370
-1
100
AcDbCircle
10
0.7564083857
20
10.8468473021
40
0.045
100
AcDbArc
50
100.469681922
51
166.68577922
0
ARC
5
15A
100
AcDbEntity
8
0
6
CONTINUOUS
62
7
370
-1
100
AcDbCircle
10
0.7537998705
20
10.835709945
40
0.045
100
AcDbArc
50
166.950584417
51
233.166681714
0
ARC
5
15B
100
AcDbEntity
8
0
6
CONTINUOUS
62
7
370
-1
100
AcDbCircle
10
0.6998078854
20
10.4982839025
40
0.045
100
AcDbArc
50
108.651500104
51
174.867597401
0
ARC
5
15C
100
AcDbEntity
8
0
6
CONTINUOUS
62
7
370
-1
100
AcDbCircle
10
0.6988109324
20
10.4868886772
40
0.045
100
AcDbArc
50
175.132402599
51
241.348499896
0
ARC
5
15D
100
AcDbEntity
8
0
6
CONTINUOUS
62
7
370
-1
100
AcDbCircle
10
1.6608468909
20
12.0792710619
40
0.065
100
AcDbArc
50
309.843863711
51
25.8656914051
0
ARC
5
15E
100
AcDbEntity
8
0
6
CONTINUOUS
62
7
370
-1
100
AcDbCircle
10
1.6510458942
20
12.0710470492
40
0.065
100
AcDbArc
50
234.134308595
51
310.156136289
0
ARC
5
15F
100
AcDbEntity
8
0
6
CONTINUOUS
62
7
370
-1
100
AcDbCircle
10
1.4196483228
20
11.8468783851
40
0.065
100
AcDbArc
50
318.025681893
51
34.0475095869
0
ARC
5
160
100
AcDbEntity
8
0
6
CONTINUOUS
62
7
370
-1
100
AcDbCircle
10
1.4111174851
20
11.8373432537
40
0.065
100
AcDbArc
50
242.316126777
51
318.33795447
0
ARC
5
161
100
AcDbEntity
8
0
6
CONTINUOUS
62
7
370
-1
100
AcDbCircle
10
1.2139777345
20
11.5825249954
40
0.065
100
AcDbArc
50
326.207500075
51
42.2293277687
0
ARC
5
162
100
AcDbEntity
8
0
6
CONTINUOUS
62
7
370
-1
100
AcDbCircle
10
1.2068907191
20
11.5718728531
40
0.065
100
AcDbArc
50
250.497944959
51
326.519772652
0
ARC
5
163
100
AcDbEntity
8
0
6
CONTINUOUS
62
7
370
-1
100
AcDbCircle
10
1.2108320534
20
11.7958573901
40
0.045
100
AcDbArc
50
75.9242273769
51
142.140324674
0
ARC
5
164
100
AcDbEntity
8
0
6
CONTINUOUS
62
7
370
-1
100
AcDbCircle
10
1.2038326392
20
11.78681011
40
0.045
100
AcDbArc
50
142.405129871
51
208.621227169
0
ARC
5
165
100
AcDbEntity
8
0
6
CONTINUOUS
62
7
370
-1
100
AcDbCircle
10
1.438679293
20
12.0505279694
40
0.045
100
AcDbArc
50
134.22331169
51
200.439408987
0
ARC
5
166
100
AcDbEntity
8
0
6
CONTINUOUS
62
7
370
-1
100
AcDbCircle
10
1.4468950254
20
12.0584870407
40
0.045
100
AcDbArc
50
67.7424091951
51
133.958506492
0
ARC
5
167
100
AcDbEntity
8
0
6
CONTINUOUS
62
7
370
-1
100
AcDbCircle
10
1.7179313131
20
12.2848482364
40
0.045
100
AcDbArc
50
59.5605910133
51
125.776688311
0
ARC
5
168
100
AcDbEntity
8
0
6
CONTINUOUS
62
7
370
-1
100
AcDbCircle
10
1.708666511
20
12.2781393977
40
0.045
100
AcDbArc
50
126.041493508
51
192.257590805
0
ARC
5
169
100
AcDbEntity
8
0
6
CONTINUOUS
62
7
370
-1
100
AcDbCircle
10
2.8740557022
20
12.6062915098
40
0.065
100
AcDbArc
50
277.116590984
51
353.138418678
0
ARC
5
16A
100
AcDbEntity
8
0
6
CONTINUOUS
62
7
370
-1
100
AcDbCircle
10
2.8613643421
20
12.6046718489
40
0.065
100
AcDbArc
50
201.407035868
51
277.428863561
0
ARC
5
16B
100
AcDbEntity
8
0
6
CONTINUOUS
62
7
370
-1
100
AcDbCircle
10
2.5455055879
20
12.5411921404
40
0.065
100
AcDbArc
50
285.298409166
51
1.3202368596
0
ARC
5
16C
100
AcDbEntity
8
0
6
CONTINUOUS
62
7
370
-1
100
AcDbCircle
10
2.5331739093
20
12.5377827965
40
0.065
100
AcDbArc
50
209.588854049
51
285.610681743
0
ARC
5
16D
100
AcDbEntity
8
0
6
CONTINUOUS
62
7
370
-1
100
AcDbCircle
10
2.2295642461
20
12.4299978324
40
0.065
100
AcDbArc
50
293.480227348
51
9.5020550414
0
ARC
5
16E
100
AcDbEntity
8
0
6
CONTINUOUS
62
7
370
-1
100
AcDbCircle
10
2.2178432865
20
12.4248682098
40
0.065
100
AcDbArc
50
217.770672231
51
293.792499925
0
ARC
5
16F
100
AcDbEntity
8
0
6
CONTINUOUS
62
7
370
-1
100
AcDbCircle
10
1.9326633317
20
12.2749721812
40
0.065
100
AcDbArc
50
301.66204553
51
17.6838732232
0
ARC
5
170
100
AcDbEntity
8
0
6
CONTINUOUS
62
7
370
-1
100
AcDbCircle
10
1.9217916959
20
12.2682267043
40
0.065
100
AcDbArc
50
225.952490413
51
301.974318107
0
ARC
5
171
100
AcDbEntity
8
0
6
CONTINUOUS
62
7
370
-1
100
AcDbCircle
10
3.0332215857
20
12.7483718655
40
0.045
100
AcDbArc
50
26.833318286
51
93.0494155832
0
ARC
5
172
100
AcDbEntity
8
0
6
CONTINUOUS
62
7
370
-1
100
AcDbCircle
10
3.0218004662
20
12.7477369613
40
0.045
100
AcDbArc
50
93.3142207804
51
159.530318078
0
ARC
5
173
100
AcDbEntity
8
0
6
CONTINUOUS
62
7
370
-1
100
AcDbCircle
10
2.6828312493
20
12.7044779899
40
0.045
100
AcDbArc
50
35.0151364679
51
101.231233765
0
ARC
5
174
100
AcDbEntity
8
0
6
CONTINUOUS
62
7
370
-1
100
AcDbCircle
10
2.6716167366
20
12.7022241534
40
0.045
100
AcDbArc
50
101.496038962
51
167.712136259
0
ARC
5
175
100
AcDbEntity
8
0
6
CONTINUOUS
62
7
370
-1
100
AcDbCircle
10
2.3422541311
20
12.6111651467
40
0.045
100
AcDbArc
50
43.1969546497
51
109.413051947
0
ARC
5
176
100
AcDbEntity
8
0
6
CONTINUOUS
62
7
370
-1
100
AcDbCircle
10
2.3314745203
20
12.6073382594
40
0.045
100
AcDbArc
50
109.677857144
51
175.893954441
0
ARC
5
177
100
AcDbEntity
8
0
6
CONTINUOUS
62
7
370
-1
100
AcDbCircle
10
2.008298132
20
12.4650108825
40
0.045
100
AcDbArc
50
117.859675326
51
184.075772623
0
ARC
5
178
100
AcDbEntity
8
0
6
CONTINUOUS
62
7
370
-1
100
AcDbCircle
10
2.018423399
20
12.4703329162
40
0.045
100
AcDbArc
50
51.3787728315
51
117.594870129
0
ARC
5
179
100
AcDbEntity
8
0
6
CONTINUOUS
62
7
370
-1
100
AcDbCircle
10
3.4557137048
20
7.9474612952
40
0.065
100
AcDbArc
50
97.1165909842
51
173.138418678
0
ARC
5
17A
100
AcDbEntity
8
0
6
CONTINUOUS
62
7
370
-1
100
AcDbCircle
10
3.4684050649
20
7.9490809561
40
0.065
100
AcDbArc
50
21.4070358677
51
97.4288635612
0
ARC
5
17B
100
AcDbEntity
8
0
6
CONTINUOUS
62
7
370
-1
100
AcDbCircle
10
3.7842638192
20
8.0125606646
40
0.065
100
AcDbArc
50
105.298409166
51
181.32023686
0
ARC
5
17C
100
AcDbEntity
8
0
6
CONTINUOUS
62
7
370
-1
100
AcDbCircle
10
3.7965954977
20
8.0159700085
40
0.065
100
AcDbArc
50
29.5888540495
51
105.610681743
0
ARC
5
17D
100
AcDbEntity
8
0
6
CONTINUOUS
62
7
370
-1
100
AcDbCircle
10
4.1002051609
20
8.1237549726
40
0.065
100
AcDbArc
50
113.480227348
51
189.502055041
0
ARC
5
17E
100
AcDbEntity
8
0
6
CONTINUOUS
62
7
370
-1
100
AcDbCircle
10
4.1119261205
20
8.1288845951
40
0.065
100
AcDbArc
50
37.7706722313
51
113.792499925
0
ARC
5
17F
100
AcDbEntity
8
0
6
CONTINUOUS
62
7
370
-1
100
AcDbCircle
10
4.3971060753
20
8.2787806238
40
0.065
100
AcDbArc
50
121.66204553
51
197.683873223
0
ARC
5
180
100
AcDbEntity
8
0
6
CONTINUOUS
62
7
370
-1
100
AcDbCircle
10
4.4079777111
20
8.2855261007
40
0.065
100
AcDbArc
50
45.9524904131
51
121.974318107
0
ARC
5
181
100
AcDbEntity
8
0
6
CONTINUOUS
62
7
370
-1
100
AcDbCircle
10
3.2965478213
20
7.8053809395
40
0.045
100
AcDbArc
50
206.833318286
51
273.049415583
0
ARC
5
182
100
AcDbEntity
8
0
6
CONTINUOUS
62
7
370
-1
100
AcDbCircle
10
3.3079689408
20
7.8060158437
40
0.045
100
AcDbArc
50
273.31422078
51
339.530318078
0
ARC
5
183
100
AcDbEntity
8
0
6
CONTINUOUS
62
7
370
-1
100
AcDbCircle
10
3.6469381577
20
7.8492748151
40
0.045
100
AcDbArc
50
215.015136468
51
281.231233765
0
ARC
5
184
100
AcDbEntity
8
0
6
CONTINUOUS
62
7
370
-1
100
AcDbCircle
10
3.6581526704
20
7.8515286516
40
0.045
100
AcDbArc
50
281.496038962
51
347.712136259
0
ARC
5
185
100
AcDbEntity
8
0
6
CONTINUOUS
62
7
370
-1
100
AcDbCircle
10
3.9875152759
20
7.9425876583
40
0.045
100
AcDbArc
50
223.19695465
51
289.413051947
0
ARC
5
186
100
AcDbEntity
8
0
6
CONTINUOUS
62
7
370
-1
100
AcDbCircle
10
3.9982948867
20
7.9464145456
40
0.045
100
AcDbArc
50
289.677857144
51
355.893954441
0
ARC
5
187
100
AcDbEntity
8
0
6
CONTINUOUS
62
7
370
-1
100
AcDbCircle
10
4.311346008
20
8.0834198888
40
0.045
100
AcDbArc
50
231.378772831
51
297.594870129
0
ARC
5
188
100
AcDbEntity
8
0
6
CONTINUOUS
62
7
370
-1
100
AcDbCircle
10
4.321471275
20
8.0887419225
40
0.045
100
AcDbArc
50
297.859675326
51
4.0757726231
0
ARC
5
189
100
AcDbEntity
8
0
6
CONTINUOUS
62
7
370
-1
100
AcDbCircle
10
4.6689225161
20
8.4744817431
40
0.065
100
AcDbArc
50
129.843863712
51
205.865691405
0
ARC
5
18A
100
AcDbEntity
8
0
6
CONTINUOUS
62
7
370
-1
100
AcDbCircle
10
4.6787235128
20
8.4827057558
40
0.065
100
AcDbArc
50
54.1343085949
51
130.156136288
0
ARC
5
18B
100
AcDbEntity
8
0
6
CONTINUOUS
62
7
370
-1
100
AcDbCircle
10
4.9101210842
20
8.7068744199
40
0.065
100
AcDbArc
50
138.025681893
51
214.047509587
0
ARC
5
18C
100
AcDbEntity
8
0
6
CONTINUOUS
62
7
370
-1
100
AcDbCircle
10
4.9186519219
20
8.7164095513
40
0.065
100
AcDbArc
50
62.3161267767
51
138.33795447
0
ARC
5
18D
100
AcDbEntity
8
0
6
CONTINUOUS
62
7
370
-1
100
AcDbCircle
10
5.1157916726
20
8.9712278096
40
0.065
100
AcDbArc
50
146.207500075
51
222.229327769
0
ARC
5
18E
100
AcDbEntity
8
0
6
CONTINUOUS
62
7
370
-1
100
AcDbCircle
10
5.1228786879
20
8.9818799519
40
0.065
100
AcDbArc
50
70.4979449586
51
146.519772652
0
ARC
5
18F
100
AcDbEntity
8
0
6
CONTINUOUS
62
7
370
-1
100
AcDbCircle
10
4.6118380939
20
8.2689045686
40
0.045
100
AcDbArc
50
239.560591013
51
305.77668831
0
ARC
5
190
100
AcDbEntity
8
0
6
CONTINUOUS
62
7
370
-1
100
AcDbCircle
10
4.621102896
20
8.2756134073
40
0.045
100
AcDbArc
50
306.041493508
51
12.2575908049
0
ARC
5
191
100
AcDbEntity
8
0
6
CONTINUOUS
62
7
370
-1
100
AcDbCircle
10
4.8828743816
20
8.4952657643
40
0.045
100
AcDbArc
50
247.742409195
51
313.958506492
0
ARC
5
192
100
AcDbEntity
8
0
6
CONTINUOUS
62
7
370
-1
100
AcDbCircle
10
4.891090114
20
8.5032248356
40
0.045
100
AcDbArc
50
314.22331169
51
20.4394089867
0
ARC
5
193
100
AcDbEntity
8
0
6
CONTINUOUS
62
7
370
-1
100
AcDbCircle
10
5.1189373536
20
8.7578954149
40
0.045
100
AcDbArc
50
255.924227377
51
322.140324674
0
ARC
5
194
100
AcDbEntity
8
0
6
CONTINUOUS
62
7
370
-1
100
AcDbCircle
10
5.1259367678
20
8.7669426949
40
0.045
100
AcDbArc
50
322.405129871
51
28.6212271685
0
ARC
5
195
100
AcDbEntity
8
0
6
CONTINUOUS
62
7
370
-1
100
AcDbCircle
10
5.2817474209
20
9.2621604395
40
0.065
100
AcDbArc
50
154.389318257
51
230.411145951
0
ARC
5
196
100
AcDbEntity
8
0
6
CONTINUOUS
62
7
370
-1
100
AcDbCircle
10
5.2872463428
20
9.2737127458
40
0.065
100
AcDbArc
50
78.6797631404
51
154.701590834
0
ARC
5
197
100
AcDbEntity
8
0
6
CONTINUOUS
62
7
370
-1
100
AcDbCircle
10
5.4046099489
20
9.5737497602
40
0.065
100
AcDbArc
50
162.571136439
51
238.592964132
0
ARC
5
198
100
AcDbEntity
8
0
6
CONTINUOUS
62
7
370
-1
100
AcDbCircle
10
5.4084088351
20
9.5859670588
40
0.065
100
AcDbArc
50
86.8615813222
51
162.883409016
0
ARC
5
199
100
AcDbEntity
8
0
6
CONTINUOUS
62
7
370
-1
100
AcDbCircle
10
5.4818781297
20
9.8996527116
40
0.065
100
AcDbArc
50
170.752954621
51
246.774782314
0
ARC
5
19A
100
AcDbEntity
8
0
6
CONTINUOUS
62
7
370
-1
100
AcDbCircle
10
5.4838996458
20
9.9122862937
40
0.065
100
AcDbArc
50
95.043399504
51
171.065227198
0
ARC
5
19B
100
AcDbEntity
8
0
6
CONTINUOUS
62
7
370
-1
100
AcDbCircle
10
5.511979006
20
10.2332348496
40
0.065
100
AcDbArc
50
178.934772802
51
254.956600496
0
ARC
5
19C
100
AcDbEntity
8
0
6
CONTINUOUS
62
7
370
-1
100
AcDbCircle
10
5.5121819998
20
10.2460275318
40
0.065
100
AcDbArc
50
103.225217686
51
179.247045379
0
ARC
5
19D
100
AcDbEntity
8
0
6
CONTINUOUS
62
7
370
-1
100
AcDbCircle
10
5.3152214487
20
9.0514471381
40
0.045
100
AcDbArc
50
264.106045559
51
330.322142856
0
ARC
5
19E
100
AcDbEntity
8
0
6
CONTINUOUS
62
7
370
-1
100
AcDbCircle
10
5.3208620568
20
9.0613984503
40
0.045
100
AcDbArc
50
330.586948053
51
36.8030453503
0
ARC
5
19F
100
AcDbEntity
8
0
6
CONTINUOUS
62
7
370
-1
100
AcDbCircle
10
5.4677308888
20
9.3699450672
40
0.045
100
AcDbArc
50
272.287863741
51
338.503961038
0
ARC
5
1A0
100
AcDbEntity
8
0
6
CONTINUOUS
62
7
370
-1
100
AcDbCircle
10
5.4718978642
20
9.3805978316
40
0.045
100
AcDbArc
50
338.768766235
51
44.9848635322
0
ARC
5
1A1
100
AcDbEntity
8
0
6
CONTINUOUS
62
7
370
-1
100
AcDbCircle
10
5.5733610214
20
9.7069055029
40
0.045
100
AcDbArc
50
280.469681922
51
346.68577922
0
ARC
5
1A2
100
AcDbEntity
8
0
6
CONTINUOUS
62
7
370
-1
100
AcDbCircle
10
5.5759695365
20
9.71804286
40
0.045
100
AcDbArc
50
346.950584417
51
53.166681714
0
ARC
5
1A3
100
AcDbEntity
8
0
6
CONTINUOUS
62
7
370
-1
100
AcDbCircle
10
5.6299615216
20
10.0554689025
40
0.045
100
AcDbArc
50
288.651500104
51
354.867597401
0
ARC
5
1A4
100
AcDbEntity
8
0
6
CONTINUOUS
62
7
370
-1
100
AcDbCircle
10
5.6309584746
20
10.0668641278
40
0.045
100
AcDbArc
50
355.132402599
51
61.3484998958
0
ARC
5
1A5
100
AcDbEntity
8
0
6
CONTINUOUS
62
7
370
-1
100
AcDbCircle
10
3.1648847035
20
10.2768764025
40
2.52
100
AcDbArc
50
93.0494155832
51
93.3142207804
0
ARC
5
1A6
100
AcDbEntity
8
0
6
CONTINUOUS
62
7
370
-1
100
AcDbCircle
10
3.1648847035
20
10.2768764025
40
2.52
100
AcDbArc
50
84.8675974014
51
85.1324025986
0
ARC
5
1A7
100
AcDbEntity
8
0
6
CONTINUOUS
62
7
370
-1
100
AcDbCircle
10
3.1648847035
20
10.2768764025
40
2.52
100
AcDbArc
50
76.6857792196
51
76.9505844168
0
ARC
5
1A8
100
AcDbEntity
8
0
6
CONTINUOUS
62
7
370
-1
100
AcDbCircle
10
3.1648847035
20
10.2768764025
40
2.52
100
AcDbArc
50
68.5039610378
51
68.768766235
0
ARC
5
1A9
100
AcDbEntity
8
0
6
CONTINUOUS
62
7
370
-1
100
AcDbCircle
10
3.1648847035
20
10.2768764025
40
2.52
100
AcDbArc
50
60.3221428559
51
60.5869480531
0
ARC
5
1AA
100
AcDbEntity
8
0
6
CONTINUOUS
62
7
370
-1
100
AcDbCircle
10
3.1648847035
20
10.2768764025
40
2.52
100
AcDbArc
50
52.1403246741
51
52.4051298713
0
ARC
5
1AB
100
AcDbEntity
8
0
6
CONTINUOUS
62
7
370
-1
100
AcDbCircle
10
3.1648847035
20
10.2768764025
40
2.52
100
AcDbArc
50
43.9585064923
51
44.2233116895
0
ARC
5
1AC
100
AcDbEntity
8
0
6
CONTINUOUS
62
7
370
-1
100
AcDbCircle
10
3.1648847035
20
10.2768764025
40
2.52
100
AcDbArc
50
35.7766883105
51
36.0414935077
0
ARC
5
1AD
100
AcDbEntity
8
0
6
CONTINUOUS
62
7
370
-1
100
AcDbCircle
10
3.1648847035
20
10.2768764025
40
2.52
100
AcDbArc
50
27.5948701287
51
27.8596753259
0
ARC
5
1AE
100
AcDbEntity
8
0
6
CONTINUOUS
62
7
370
-1
100
AcDbCircle
10
3.1648847035
20
10.2768764025
40
2.52
100
AcDbArc
50
19.4130519469
51
19.6778571441
0
ARC
5
1AF
100
AcDbEntity
8
0
6
CONTINUOUS
62
7
370
-1
100
AcDbCircle
10
3.1648847035
20
10.2768764025
40
2.52
100
AcDbArc
50
11.231233765
51
11.4960389622
0
ARC
5
1B0
100
AcDbEntity
8
0
6
CONTINUOUS
62
7
370
-1
100
AcDbCircle
10
3.1648847035
20
10.2768764025
40
2.52
100
AcDbArc
50
3.0494155832
51
3.3142207804
0
ARC
5
1B1
100
AcDbEntity
8
0
6
CONTINUOUS
62
7
370
-1
100
AcDbCircle
10
3.1648847035
20
10.2768764025
40
2.52
100
AcDbArc
50
354.867597401
51
355.132402599
0
ARC
5
1B2
100
AcDbEntity
8
0
6
CONTINUOUS
62
7
370
-1
100
AcDbCircle
10
3.1648847035
20
10.2768764025
40
2.52
100
AcDbArc
50
346.68577922
51
346.950584417
0
ARC
5
1B3
100
AcDbEntity
8
0
6
CONTINUOUS
62
7
370
-1
100
AcDbCircle
10
3.1648847035
20
10.2768764025
40
2.52
100
AcDbArc
50
338.503961038
51
338.768766235
0
ARC
5
1B4
100
AcDbEntity
8
0
6
CONTINUOUS
62
7
370
-1
100
AcDbCircle
10
3.1648847035
20
10.2768764025
40
2.52
100
AcDbArc
50
330.322142856
51
330.586948053
0
ARC
5
1B5
100
AcDbEntity
8
0
6
CONTINUOUS
62
7
370
-1
100
AcDbCircle
10
3.1648847035
20
10.2768764025
40
2.52
100
AcDbArc
50
322.140324674
51
322.405129871
0
ARC
5
1B6
100
AcDbEntity
8
0
6
CONTINUOUS
62
7
370
-1
100
AcDbCircle
10
3.1648847035
20
10.2768764025
40
2.52
100
AcDbArc
50
101.231233765
51
101.496038962
0
ARC
5
1B7
100
AcDbEntity
8
0
6
CONTINUOUS
62
7
370
-1
100
AcDbCircle
10
3.1648847035
20
10.2768764025
40
2.52
100
AcDbArc
50
109.413051947
51
109.677857144
0
ARC
5
1B8
100
AcDbEntity
8
0
6
CONTINUOUS
62
7
370
-1
100
AcDbCircle
10
3.1648847035
20
10.2768764025
40
2.52
100
AcDbArc
50
313.958506492
51
314.22331169
0
ARC
5
1B9
100
AcDbEntity
8
0
6
CONTINUOUS
62
7
370
-1
100
AcDbCircle
10
3.1648847035
20
10.2768764025
40
2.52
100
AcDbArc
50
117.594870129
51
117.859675326
0
ARC
5
1BA
100
AcDbEntity
8
0
6
CONTINUOUS
62
7
370
-1
100
AcDbCircle
10
3.1648847035
20
10.2768764025
40
2.52
100
AcDbArc
50
125.776688311
51
126.041493508
0
ARC
5
1BB
100
AcDbEntity
8
0
6
CONTINUOUS
62
7
370
-1
100
AcDbCircle
10
3.1648847035
20
10.2768764025
40
2.52
100
AcDbArc
50
133.958506492
51
134.22331169
0
ARC
5
1BC
100
AcDbEntity
8
0
6
CONTINUOUS
62
7
370
-1
100
AcDbCircle
10
3.1648847035
20
10.2768764025
40
2.52
100
AcDbArc
50
305.77668831
51
306.041493508
0
ARC
5
1BD
100
AcDbEntity
8
0
6
CONTINUOUS
62
7
370
-1
100
AcDbCircle
10
3.1648847035
20
10.2768764025
40
2.52
100
AcDbArc
50
142.140324674
51
142.405129871
0
ARC
5
1BE
100
AcDbEntity
8
0
6
CONTINUOUS
62
7
370
-1
100
AcDbCircle
10
3.1648847035
20
10.2768764025
40
2.52
100
AcDbArc
50
150.322142856
51
150.586948053
0
ARC
5
1BF
100
AcDbEntity
8
0
6
CONTINUOUS
62
7
370
-1
100
AcDbCircle
10
3.1648847035
20
10.2768764025
40
2.52
100
AcDbArc
50
158.503961038
51
158.768766235
0
ARC
5
1C0
100
AcDbEntity
8
0
6
CONTINUOUS
62
7
370
-1
100
AcDbCircle
10
3.1648847035
20
10.2768764025
40
2.52
100
AcDbArc
50
297.594870129
51
297.859675326
0
ARC
5
1C1
100
AcDbEntity
8
0
6
CONTINUOUS
62
7
370
-1
100
AcDbCircle
10
3.1648847035
20
10.2768764025
40
2.52
100
AcDbArc
50
166.68577922
51
166.950584417
0
ARC
5
1C2
100
AcDbEntity
8
0
6
CONTINUOUS
62
7
370
-1
100
AcDbCircle
10
3.1648847035
20
10.2768764025
40
2.52
100
AcDbArc
50
174.867597401
51
175.132402599
0
ARC
5
1C3
100
AcDbEntity
8
0
6
CONTINUOUS
62
7
370
-1
100
AcDbCircle
10
3.1648847035
20
10.2768764025
40
2.52
100
AcDbArc
50
183.049415583
51
183.31422078
0
ARC
5
1C4
100
AcDbEntity
8
0
6
CONTINUOUS
62
7
370
-1
100
AcDbCircle
10
3.1648847035
20
10.2768764025
40
2.52
100
AcDbArc
50
289.413051947
51
289.677857144
0
ARC
5
1C5
100
AcDbEntity
8
0
6
CONTINUOUS
62
7
370
-1
100
AcDbCircle
10
3.1648847035
20
10.2768764025
40
2.52
100
AcDbArc
50
191.231233765
51
191.496038962
0
ARC
5
1C6
100
AcDbEntity
8
0
6
CONTINUOUS
62
7
370
-1
100
AcDbCircle
10
3.1648847035
20
10.2768764025
40
2.52
100
AcDbArc
50
199.413051947
51
199.677857144
0
ARC
5
1C7
100
AcDbEntity
8
0
6
CONTINUOUS
62
7
370
-1
100
AcDbCircle
10
3.1648847035
20
10.2768764025
40
2.52
100
AcDbArc
50
207.594870129
51
207.859675326
0
ARC
5
1C8
100
AcDbEntity
8
0
6
CONTINUOUS
62
7
370
-1
100
AcDbCircle
10
3.1648847035
20
10.2768764025
40
2.52
100
AcDbArc
50
281.231233765
51
281.496038962
0
ARC
5
1C9
100
AcDbEntity
8
0
6
CONTINUOUS
62
7
370
-1
100
AcDbCircle
10
3.1648847035
20
10.2768764025
40
2.52
100
AcDbArc
50
215.77668831
51
216.041493508
0
ARC
5
1CA
100
AcDbEntity
8
0
6
CONTINUOUS
62
7
370
-1
100
AcDbCircle
10
3.1648847035
20
10.2768764025
40
2.52
100
AcDbArc
50
223.958506492
51
224.22331169
0
ARC
5
1CB
100
AcDbEntity
8
0
6
CONTINUOUS
62
7
370
-1
100
AcDbCircle
10
3.1648847035
20
10.2768764025
40
2.52
100
AcDbArc
50
232.140324674
51
232.405129871
0
ARC
5
1CC
100
AcDbEntity
8
0
6
CONTINUOUS
62
7
370
-1
100
AcDbCircle
10
3.1648847035
20
10.2768764025
40
2.52
100
AcDbArc
50
273.049415583
51
273.31422078
0
ARC
5
1CD
100
AcDbEntity
8
0
6
CONTINUOUS
62
7
370
-1
100
AcDbCircle
10
3.1648847035
20
10.2768764025
40
2.52
100
AcDbArc
50
240.322142856
51
240.586948053
0
ARC
5
1CE
100
AcDbEntity
8
0
6
CONTINUOUS
62
7
370
-1
100
AcDbCircle
10
3.1648847035
20
10.2768764025
40
2.52
100
AcDbArc
50
248.503961038
51
248.768766235
0
ARC
5
1CF
100
AcDbEntity
8
0
6
CONTINUOUS
62
7
370
-1
100
AcDbCircle
10
3.1648847035
20
10.2768764025
40
2.52
100
AcDbArc
50
256.68577922
51
256.950584417
0
ARC
5
1D0
100
AcDbEntity
8
0
6
CONTINUOUS
62
7
370
-1
100
AcDbCircle
10
3.1648847035
20
10.2768764025
40
2.52
100
AcDbArc
50
264.867597401
51
265.132402599
0
ARC
5
1D1
100
AcDbEntity
8
0
6
CONTINUOUS
62
7
370
-1
100
AcDbCircle
10
3.1648847035
20
10.2768764025
40
2.2825
100
AcDbArc
50
97.1165909842
51
97.4288635612
0
ARC
5
1D2
100
AcDbEntity
8
0
6
CONTINUOUS
62
7
370
-1
100
AcDbCircle
10
3.1648847035
20
10.2768764025
40
2.2825
100
AcDbArc
50
88.9347728024
51
89.2470453794
0
ARC
5
1D3
100
AcDbEntity
8
0
6
CONTINUOUS
62
7
370
-1
100
AcDbCircle
10
3.1648847035
20
10.2768764025
40
2.2825
100
AcDbArc
50
80.7529546206
51
81.0652271976
0
ARC
5
1D4
100
AcDbEntity
8
0
6
CONTINUOUS
62
7
370
-1
100
AcDbCircle
10
3.1648847035
20
10.2768764025
40
2.2825
100
AcDbArc
50
72.5711364388
51
72.8834090158
0
ARC
5
1D5
100
AcDbEntity
8
0
6
CONTINUOUS
62
7
370
-1
100
AcDbCircle
10
3.1648847035
20
10.2768764025
40
2.2825
100
AcDbArc
50
64.3893182569
51
64.701590834
0
ARC
5
1D6
100
AcDbEntity
8
0
6
CONTINUOUS
62
7
370
-1
100
AcDbCircle
10
3.1648847035
20
10.2768764025
40
2.2825
100
AcDbArc
50
56.2075000751
51
56.5197726521
0
ARC
5
1D7
100
AcDbEntity
8
0
6
CONTINUOUS
62
7
370
-1
100
AcDbCircle
10
3.1648847035
20
10.2768764025
40
2.2825
100
AcDbArc
50
48.0256818933
51
48.3379544703
0
ARC
5
1D8
100
AcDbEntity
8
0
6
CONTINUOUS
62
7
370
-1
100
AcDbCircle
10
3.1648847035
20
10.2768764025
40
2.2825
100
AcDbArc
50
39.8438637115
51
40.1561362885
0
ARC
5
1D9
100
AcDbEntity
8
0
6
CONTINUOUS
62
7
370
-1
100
AcDbCircle
10
3.1648847035
20
10.2768764025
40
2.2825
100
AcDbArc
50
31.6620455297
51
31.9743181067
0
ARC
5
1DA
100
AcDbEntity
8
0
6
CONTINUOUS
62
7
370
-1
100
AcDbCircle
10
3.1648847035
20
10.2768764025
40
2.2825
100
AcDbArc
50
23.4802273479
51
23.7924999249
0
ARC
5
1DB
100
AcDbEntity
8
0
6
CONTINUOUS
62
7
370
-1
100
AcDbCircle
10
3.1648847035
20
10.2768764025
40
2.2825
100
AcDbArc
50
15.298409166
51
15.6106817431
0
ARC
5
1DC
100
AcDbEntity
8
0
6
CONTINUOUS
62
7
370
-1
100
AcDbCircle
10
3.1648847035
20
10.2768764025
40
2.2825
100
AcDbArc
50
7.1165909842
51
7.4288635612
0
ARC
5
1DD
100
AcDbEntity
8
0
6
CONTINUOUS
62
7
370
-1
100
AcDbCircle
10
3.1648847035
20
10.2768764025
40
2.2825
100
AcDbArc
50
358.934772802
51
359.247045379
0
ARC
5
1DE
100
AcDbEntity
8
0
6
CONTINUOUS
62
7
370
-1
100
AcDbCircle
10
3.1648847035
20
10.2768764025
40
2.2825
100
AcDbArc
50
350.752954621
51
351.065227198
0
ARC
5
1DF
100
AcDbEntity
8
0
6
CONTINUOUS
62
7
370
-1
100
AcDbCircle
10
3.1648847035
20
10.2768764025
40
2.2825
100
AcDbArc
50
342.571136439
51
342.883409016
0
ARC
5
1E0
100
AcDbEntity
8
0
6
CONTINUOUS
62
7
370
-1
100
AcDbCircle
10
3.1648847035
20
10.2768764025
40
2.2825
100
AcDbArc
50
334.389318257
51
334.701590834
0
ARC
5
1E1
100
AcDbEntity
8
0
6
CONTINUOUS
62
7
370
-1
100
AcDbCircle
10
3.1648847035
20
10.2768764025
40
2.2825
100
AcDbArc
50
326.207500075
51
326.519772652
0
ARC
5
1E2
100
AcDbEntity
8
0
6
CONTINUOUS
62
7
370
-1
100
AcDbCircle
10
3.1648847035
20
10.2768764025
40
2.2825
100
AcDbArc
50
318.025681893
51
318.33795447
0
ARC
5
1E3
100
AcDbEntity
8
0
6
CONTINUOUS
62
7
370
-1
100
AcDbCircle
10
3.1648847035
20
10.2768764025
40
2.2825
100
AcDbArc
50
105.298409166
51
105.610681743
0
ARC
5
1E4
100
AcDbEntity
8
0
6
CONTINUOUS
62
7
370
-1
100
AcDbCircle
10
3.1648847035
20
10.2768764025
40
2.2825
100
AcDbArc
50
113.480227348
51
113.792499925
0
ARC
5
1E5
100
AcDbEntity
8
0
6
CONTINUOUS
62
7
370
-1
100
AcDbCircle
10
3.1648847035
20
10.2768764025
40
2.2825
100
AcDbArc
50
121.66204553
51
121.974318107
0
ARC
5
1E6
100
AcDbEntity
8
0
6
CONTINUOUS
62
7
370
-1
100
AcDbCircle
10
3.1648847035
20
10.2768764025
40
2.2825
100
AcDbArc
50
309.843863711
51
310.156136289
0
ARC
5
1E7
100
AcDbEntity
8
0
6
CONTINUOUS
62
7
370
-1
100
AcDbCircle
10
3.1648847035
20
10.2768764025
40
2.2825
100
AcDbArc
50
129.843863712
51
130.156136288
0
ARC
5
1E8
100
AcDbEntity
8
0
6
CONTINUOUS
62
7
370
-1
100
AcDbCircle
10
3.1648847035
20
10.2768764025
40
2.2825
100
AcDbArc
50
138.025681893
51
138.33795447
0
ARC
5
1E9
100
AcDbEntity
8
0
6
CONTINUOUS
62
7
370
-1
100
AcDbCircle
10
3.1648847035
20
10.2768764025
40
2.2825
100
AcDbArc
50
146.207500075
51
146.519772652
0
ARC
5
1EA
100
AcDbEntity
8
0
6
CONTINUOUS
62
7
370
-1
100
AcDbCircle
10
3.1648847035
20
10.2768764025
40
2.2825
100
AcDbArc
50
301.66204553
51
301.974318107
0
ARC
5
1EB
100
AcDbEntity
8
0
6
CONTINUOUS
62
7
370
-1
100
AcDbCircle
10
3.1648847035
20
10.2768764025
40
2.2825
100
AcDbArc
50
154.389318257
51
154.701590834
0
ARC
5
1EC
100
AcDbEntity
8
0
6
CONTINUOUS
62
7
370
-1
100
AcDbCircle
10
3.1648847035
20
10.2768764025
40
2.2825
100
AcDbArc
50
162.571136439
51
162.883409016
0
ARC
5
1ED
100
AcDbEntity
8
0
6
CONTINUOUS
62
7
370
-1
100
AcDbCircle
10
3.1648847035
20
10.2768764025
40
2.2825
100
AcDbArc
50
170.752954621
51
171.065227198
0
ARC
5
1EE
100
AcDbEntity
8
0
6
CONTINUOUS
62
7
370
-1
100
AcDbCircle
10
3.1648847035
20
10.2768764025
40
2.2825
100
AcDbArc
50
293.480227348
51
293.792499925
0
ARC
5
1EF
100
AcDbEntity
8
0
6
CONTINUOUS
62
7
370
-1
100
AcDbCircle
10
3.1648847035
20
10.2768764025
40
2.2825
100
AcDbArc
50
178.934772802
51
179.247045379
0
ARC
5
1F0
100
AcDbEntity
8
0
6
CONTINUOUS
62
7
370
-1
100
AcDbCircle
10
3.1648847035
20
10.2768764025
40
2.2825
100
AcDbArc
50
187.116590984
51
187.428863561
0
ARC
5
1F1
100
AcDbEntity
8
0
6
CONTINUOUS
62
7
370
-1
100
AcDbCircle
10
3.1648847035
20
10.2768764025
40
2.2825
100
AcDbArc
50
195.298409166
51
195.610681743
0
ARC
5
1F2
100
AcDbEntity
8
0
6
CONTINUOUS
62
7
370
-1
100
AcDbCircle
10
3.1648847035
20
10.2768764025
40
2.2825
100
AcDbArc
50
285.298409166
51
285.610681743
0
ARC
5
1F3
100
AcDbEntity
8
0
6
CONTINUOUS
62
7
370
-1
100
AcDbCircle
10
3.1648847035
20
10.2768764025
40
2.2825
100
AcDbArc
50
203.480227348
51
203.792499925
0
ARC
5
1F4
100
AcDbEntity
8
0
6
CONTINUOUS
62
7
370
-1
100
AcDbCircle
10
3.1648847035
20
10.2768764025
40
2.2825
100
AcDbArc
50
211.66204553
51
211.974318107
0
ARC
5
1F5
100
AcDbEntity
8
0
6
CONTINUOUS
62
7
370
-1
100
AcDbCircle
10
3.1648847035
20
10.2768764025
40
2.2825
100
AcDbArc
50
219.843863712
51
220.156136288
0
ARC
5
1F6
100
AcDbEntity
8
0
6
CONTINUOUS
62
7
370
-1
100
AcDbCircle
10
3.1648847035
20
10.2768764025
40
2.2825
100
AcDbArc
50
277.116590984
51
277.428863561
0
ARC
5
1F7
100
AcDbEntity
8
0
6
CONTINUOUS
62
7
370
-1
100
AcDbCircle
10
3.1648847035
20
10.2768764025
40
2.2825
100
AcDbArc
50
228.025681893
51
228.33795447
0
ARC
5
1F8
100
AcDbEntity
8
0
6
CONTINUOUS
62
7
370
-1
100
AcDbCircle
10
3.1648847035
20
10.2768764025
40
2.2825
100
AcDbArc
50
236.207500075
51
236.519772652
0
ARC
5
1F9
100
AcDbEntity
8
0
6
CONTINUOUS
62
7
370
-1
100
AcDbCircle
10
3.1648847035
20
10.2768764025
40
2.2825
100
AcDbArc
50
244.389318257
51
244.701590834
0
ARC
5
1FA
100
AcDbEntity
8
0
6
CONTINUOUS
62
7
370
-1
100
AcDbCircle
10
3.1648847035
20
10.2768764025
40
2.2825
100
AcDbArc
50
268.934772802
51
269.247045379
0
ARC
5
1FB
100
AcDbEntity
8
0
6
CONTINUOUS
62
7
370
-1
100
AcDbCircle
10
3.1648847035
20
10.2768764025
40
2.2825
100
AcDbArc
50
252.571136439
51
252.883409016
0
ARC
5
1FC
100
AcDbEntity
8
0
6
CONTINUOUS
62
7
370
-1
100
AcDbCircle
10
3.1648847035
20
10.2768764025
40
2.2825
100
AcDbArc
50
260.752954621
51
261.065227198
0
ARC
5
1FD
100
AcDbEntity
8
0
6
CONTINUOUS
62
7
370
-1
100
AcDbCircle
10
3.1648847035
20
10.2768764025
40
1.9575
100
AcDbArc
50
210.626958586
51
256.203469521
0
ARC
5
1FE
100
AcDbEntity
8
0
6
CONTINUOUS
62
7
370
-1
100
AcDbCircle
10
3.1648847035
20
10.2768764025
40
1.9575
100
AcDbArc
50
354.626958586
51
40.2034695207
0
ARC
5
1FF
100
AcDbEntity
8
0
6
CONTINUOUS
62
7
370
-1
100
AcDbCircle
10
3.1648847035
20
10.2768764025
40
1.9575
100
AcDbArc
50
282.626958586
51
328.203469521
0
ARC
5
200
100
AcDbEntity
8
0
6
CONTINUOUS
62
7
370
-1
100
AcDbCircle
10
3.1648847035
20
10.2768764025
40
1.9575
100
AcDbArc
50
138.626958586
51
184.203469521
0
ARC
5
201
100
AcDbEntity
8
0
6
CONTINUOUS
62
7
370
-1
100
AcDbCircle
10
3.1648847035
20
10.2768764025
40
1.9575
100
AcDbArc
50
66.626958586
51
112.203469521
0
CIRCLE
5
202
100
AcDbEntity
8
0
6
CONTINUOUS
62
7
370
-1
100
AcDbCircle
10
3.1648847035
20
10.2768764025
40
0.125
0
ARC
5
203
100
AcDbEntity
8
0
6
CONTINUOUS
62
7
370
-1
100
AcDbCircle
10
3.2085262564
20
12.623970705
40
0.065
100
AcDbArc
50
268.934772802
51
344.956600496
0
ARC
5
204
100
AcDbEntity
8
0
6
CONTINUOUS
62
7
370
-1
100
AcDbCircle
10
3.1957335742
20
12.6241736988
40
0.065
100
AcDbArc
50
193.225217686
51
269.247045379
0
ARC
5
205
100
AcDbEntity
8
0
6
CONTINUOUS
62
7
370
-1
100
AcDbCircle
10
4.1796006665
20
12.3937391199
40
0.065
100
AcDbArc
50
244.389318257
51
320.41114595
0
ARC
5
206
100
AcDbEntity
8
0
6
CONTINUOUS
62
7
370
-1
100
AcDbCircle
10
4.1680483602
20
12.3992380418
40
0.065
100
AcDbArc
50
168.67976314
51
244.701590834
0
ARC
5
207
100
AcDbEntity
8
0
6
CONTINUOUS
62
7
370
-1
100
AcDbCircle
10
3.8680113458
20
12.5166016479
40
0.065
100
AcDbArc
50
252.571136439
51
328.592964132
0
ARC
5
208
100
AcDbEntity
8
0
6
CONTINUOUS
62
7
370
-1
100
AcDbCircle
10
3.8557940472
20
12.520400534
40
0.065
100
AcDbArc
50
176.861581322
51
252.883409016
0
ARC
5
209
100
AcDbEntity
8
0
6
CONTINUOUS
62
7
370
-1
100
AcDbCircle
10
3.5421083944
20
12.5938698287
40
0.065
100
AcDbArc
50
260.752954621
51
336.774782314
0
ARC
5
20A
100
AcDbEntity
8
0
6
CONTINUOUS
62
7
370
-1
100
AcDbCircle
10
3.5294748123
20
12.5958913448
40
0.065
100
AcDbArc
50
185.043399504
51
261.065227198
0
ARC
5
20B
100
AcDbEntity
8
0
6
CONTINUOUS
62
7
370
-1
100
AcDbCircle
10
4.3903139679
20
12.4272131477
40
0.045
100
AcDbArc
50
354.106045559
51
60.3221428559
0
ARC
5
20C
100
AcDbEntity
8
0
6
CONTINUOUS
62
7
370
-1
100
AcDbCircle
10
4.3803626557
20
12.4328537558
40
0.045
100
AcDbArc
50
60.5869480531
51
126.80304535
0
ARC
5
20D
100
AcDbEntity
8
0
6
CONTINUOUS
62
7
370
-1
100
AcDbCircle
10
4.0718160388
20
12.5797225878
40
0.045
100
AcDbArc
50
2.2878637406
51
68.5039610378
0
ARC
5
20E
100
AcDbEntity
8
0
6
CONTINUOUS
62
7
370
-1
100
AcDbCircle
10
4.0611632744
20
12.5838895632
40
0.045
100
AcDbArc
50
68.768766235
51
134.984863532
0
ARC
5
20F
100
AcDbEntity
8
0
6
CONTINUOUS
62
7
370
-1
100
AcDbCircle
10
3.7348556031
20
12.6853527203
40
0.045
100
AcDbArc
50
10.4696819224
51
76.6857792196
0
ARC
5
210
100
AcDbEntity
8
0
6
CONTINUOUS
62
7
370
-1
100
AcDbCircle
10
3.723718246
20
12.6879612355
40
0.045
100
AcDbArc
50
76.9505844168
51
143.166681714
0
ARC
5
211
100
AcDbEntity
8
0
6
CONTINUOUS
62
7
370
-1
100
AcDbCircle
10
3.3862922035
20
12.7419532206
40
0.045
100
AcDbArc
50
18.6515001042
51
84.8675974014
0
ARC
5
212
100
AcDbEntity
8
0
6
CONTINUOUS
62
7
370
-1
100
AcDbCircle
10
3.3748969782
20
12.7429501736
40
0.045
100
AcDbArc
50
85.1324025986
51
151.348499896
0
ARC
5
213
100
AcDbEntity
8
0
6
CONTINUOUS
62
7
370
-1
100
AcDbCircle
10
5.4942998108
20
10.5677054038
40
0.065
100
AcDbArc
50
187.116590984
51
263.138418678
0
ARC
5
214
100
AcDbEntity
8
0
6
CONTINUOUS
62
7
370
-1
100
AcDbCircle
10
5.4926801499
20
10.5803967639
40
0.065
100
AcDbArc
50
111.407035868
51
187.428863561
0
ARC
5
215
100
AcDbEntity
8
0
6
CONTINUOUS
62
7
370
-1
100
AcDbCircle
10
5.4292004414
20
10.8962555181
40
0.065
100
AcDbArc
50
195.298409166
51
271.32023686
0
ARC
5
216
100
AcDbEntity
8
0
6
CONTINUOUS
62
7
370
-1
100
AcDbCircle
10
5.4257910975
20
10.9085871967
40
0.065
100
AcDbArc
50
119.58885405
51
195.610681743
0
ARC
5
217
100
AcDbEntity
8
0
6
CONTINUOUS
62
7
370
-1
100
AcDbCircle
10
5.3180061334
20
11.2121968599
40
0.065
100
AcDbArc
50
203.480227348
51
279.502055041
0
ARC
5
218
100
AcDbEntity
8
0
6
CONTINUOUS
62
7
370
-1
100
AcDbCircle
10
5.3128765109
20
11.2239178195
40
0.065
100
AcDbArc
50
127.770672231
51
203.792499925
0
ARC
5
219
100
AcDbEntity
8
0
6
CONTINUOUS
62
7
370
-1
100
AcDbCircle
10
5.1629804822
20
11.5090977743
40
0.065
100
AcDbArc
50
211.66204553
51
287.683873223
0
ARC
5
21A
100
AcDbEntity
8
0
6
CONTINUOUS
62
7
370
-1
100
AcDbCircle
10
5.6363801665
20
10.4085395203
40
0.045
100
AcDbArc
50
296.833318286
51
3.0494155832
0
ARC
5
21B
100
AcDbEntity
8
0
6
CONTINUOUS
62
7
370
-1
100
AcDbCircle
10
5.6357452623
20
10.4199606398
40
0.045
100
AcDbArc
50
3.3142207804
51
69.5303180776
0
ARC
5
21C
100
AcDbEntity
8
0
6
CONTINUOUS
62
7
370
-1
100
AcDbCircle
10
5.5924862909
20
10.7589298567
40
0.045
100
AcDbArc
50
305.015136468
51
11.231233765
0
ARC
5
21D
100
AcDbEntity
8
0
6
CONTINUOUS
62
7
370
-1
100
AcDbCircle
10
5.5902324544
20
10.7701443694
40
0.045
100
AcDbArc
50
11.4960389622
51
77.7121362594
0
ARC
5
21E
100
AcDbEntity
8
0
6
CONTINUOUS
62
7
370
-1
100
AcDbCircle
10
5.4991734477
20
11.0995069749
40
0.045
100
AcDbArc
50
313.19695465
51
19.4130519469
0
ARC
5
21F
100
AcDbEntity
8
0
6
CONTINUOUS
62
7
370
-1
100
AcDbCircle
10
5.4953465604
20
11.1102865857
40
0.045
100
AcDbArc
50
19.6778571441
51
85.8939544413
0
ARC
5
220
100
AcDbEntity
8
0
6
CONTINUOUS
62
7
370
-1
100
AcDbCircle
10
5.3583412172
20
11.423337707
40
0.045
100
AcDbArc
50
321.378772831
51
27.5948701287
0
ARC
5
221
100
AcDbEntity
8
0
6
CONTINUOUS
62
7
370
-1
100
AcDbCircle
10
5.3530191835
20
11.433462974
40
0.045
100
AcDbArc
50
27.8596753259
51
94.0757726231
0
ARC
5
222
100
AcDbEntity
8
0
6
CONTINUOUS
62
7
370
-1
100
AcDbCircle
10
5.1562350053
20
11.5199694101
40
0.065
100
AcDbArc
50
135.952490413
51
211.974318107
0
ARC
5
223
100
AcDbEntity
8
0
6
CONTINUOUS
62
7
370
-1
100
AcDbCircle
10
4.9672793629
20
11.7809142151
40
0.065
100
AcDbArc
50
219.843863712
51
295.865691405
0
ARC
5
224
100
AcDbEntity
8
0
6
CONTINUOUS
62
7
370
-1
100
AcDbCircle
10
4.9590553502
20
11.7907152118
40
0.065
100
AcDbArc
50
144.134308595
51
220.156136288
0
ARC
5
225
100
AcDbEntity
8
0
6
CONTINUOUS
62
7
370
-1
100
AcDbCircle
10
4.7348866861
20
12.0221127832
40
0.065
100
AcDbArc
50
228.025681893
51
304.047509587
0
ARC
5
226
100
AcDbEntity
8
0
6
CONTINUOUS
62
7
370
-1
100
AcDbCircle
10
4.7253515547
20
12.0306436209
40
0.065
100
AcDbArc
50
152.316126777
51
228.33795447
0
ARC
5
227
100
AcDbEntity
8
0
6
CONTINUOUS
62
7
370
-1
100
AcDbCircle
10
4.4705332964
20
12.2277833715
40
0.065
100
AcDbArc
50
236.207500075
51
312.229327769
0
ARC
5
228
100
AcDbEntity
8
0
6
CONTINUOUS
62
7
370
-1
100
AcDbCircle
10
4.4598811541
20
12.2348703869
40
0.065
100
AcDbArc
50
160.497944959
51
236.519772652
0
ARC
5
229
100
AcDbEntity
8
0
6
CONTINUOUS
62
7
370
-1
100
AcDbCircle
10
5.1728565374
20
11.7238297929
40
0.045
100
AcDbArc
50
329.560591013
51
35.7766883105
0
ARC
5
22A
100
AcDbEntity
8
0
6
CONTINUOUS
62
7
370
-1
100
AcDbCircle
10
5.1661476987
20
11.733094595
40
0.045
100
AcDbArc
50
36.0414935077
51
102.257590805
0
ARC
5
22B
100
AcDbEntity
8
0
6
CONTINUOUS
62
7
370
-1
100
AcDbCircle
10
4.9464953417
20
11.9948660806
40
0.045
100
AcDbArc
50
337.742409195
51
43.9585064923
0
ARC
5
22C
100
AcDbEntity
8
0
6
CONTINUOUS
62
7
370
-1
100
AcDbCircle
10
4.9385362704
20
12.003081813
40
0.045
100
AcDbArc
50
44.2233116895
51
110.439408987
0
ARC
5
22D
100
AcDbEntity
8
0
6
CONTINUOUS
62
7
370
-1
100
AcDbCircle
10
4.6838656911
20
12.2309290526
40
0.045
100
AcDbArc
50
345.924227377
51
52.1403246741
0
ARC
5
22E
100
AcDbEntity
8
0
6
CONTINUOUS
62
7
370
-1
100
AcDbCircle
10
4.6748184111
20
12.2379284668
40
0.045
100
AcDbArc
50
52.4051298713
51
118.621227168
0
CIRCLE
5
22F
100
AcDbEntity
8
0
6
CONTINUOUS
62
7
370
-1
100
AcDbCircle
10
6.7869552129
20
12.383422292
40
0.4375
0
CIRCLE
5
230
100
AcDbEntity
8
0
6
CONTINUOUS
62
7
370
-1
100
AcDbCircle
10
6.7869552129
20
12.383422292
40
0.125
0
ARC
5
231
100
AcDbEntity
8
0
6
CONTINUOUS
62
7
370
-1
100
AcDbCircle
10
7.9091294041
20
12.5514729847
40
0.5875
100
AcDbArc
50
345.570746223
51
10.3215087756
0
ARC
5
232
100
AcDbEntity
8
0
6
CONTINUOUS
62
7
370
-1
100
AcDbCircle
10
10.3705953083
20
10.7931184691
40
0.4375
100
AcDbArc
50
153.287711613
51
29.8843529368
0
CIRCLE
5
233
100
AcDbEntity
8
0
6
CONTINUOUS
62
7
370
-1
100
AcDbCircle
10
10.3705953083
20
10.7931184691
40
0.140625
0
CIRCLE
5
234
100
AcDbEntity
8
0
6
CONTINUOUS
62
7
370
-1
100
AcDbCircle
10
8.755609519
20
12.4723242254
40
0.09375
0
CIRCLE
5
235
100
AcDbEntity
8
0
6
CONTINUOUS
62
7
370
-1
100
AcDbCircle
10
9.8681114981
20
11.8272877811
40
0.09375
0
CIRCLE
5
236
100
AcDbEntity
8
0
6
CONTINUOUS
62
7
370
-1
100
AcDbCircle
10
9.8681114981
20
11.8272877811
40
0.046875
0
CIRCLE
5
237
100
AcDbEntity
8
0
6
CONTINUOUS
62
7
370
-1
100
AcDbCircle
10
8.755609519
20
12.4723242254
40
0.046875
0
ARC
5
238
100
AcDbEntity
8
0
6
CONTINUOUS
62
7
370
-1
100
AcDbCircle
10
4.0944620831
20
4.2034851724
40
0.440625
100
AcDbArc
50
188.320858345
51
218.342274092
0
ARC
5
239
100
AcDbEntity
8
0
6
CONTINUOUS
62
7
370
-1
100
AcDbCircle
10
0.8444620831
20
4.2034851724
40
0.4375
100
AcDbArc
50
357.104904341
51
11.5093753224
0
ARC
5
23A
100
AcDbEntity
8
0
6
CONTINUOUS
62
7
370
-1
100
AcDbCircle
10
0.8444620831
20
4.2034851724
40
0.4375
100
AcDbArc
50
103
51
270
0
CIRCLE
5
23B
100
AcDbEntity
8
0
6
CONTINUOUS
62
7
370
-1
100
AcDbCircle
10
0.8444620831
20
4.2034851724
40
0.140625
0
CIRCLE
5
23C
100
AcDbEntity
8
0
6
CONTINUOUS
62
7
370
-1
100
AcDbCircle
10
4.0944620831
20
4.2034851724
40
0.140625
0
CIRCLE
5
23D
100
AcDbEntity
8
0
6
CONTINUOUS
62
7
370
-1
100
AcDbCircle
10
3.8043893859
20
4.4258973168
40
0.140625
0
CIRCLE
5
23E
100
AcDbEntity
8
0
6
CONTINUOUS
62
7
370
-1
100
AcDbCircle
10
3.8043893859
20
4.4258973168
40
0.0859375
0
CIRCLE
5
23F
100
AcDbEntity
8
0
6
CONTINUOUS
62
7
370
-1
100
AcDbCircle
10
1.2166531508
20
4.6032260757
40
0.03125
0
CIRCLE
5
240
100
AcDbEntity
8
0
6
CONTINUOUS
62
7
370
-1
100
AcDbCircle
10
3.8994802557
20
3.5234165
40
0.03125
0
CIRCLE
5
241
100
AcDbEntity
8
0
6
CONTINUOUS
62
7
370
-1
100
AcDbCircle
10
6.270572011
20
2.8284851724
40
0.140625
0
CIRCLE
5
242
100
AcDbEntity
8
0
6
CONTINUOUS
62
7
370
-1
100
AcDbCircle
10
6.270572011
20
2.8284851724
40
0.0859375
0
ARC
5
243
100
AcDbEntity
8
0
6
CONTINUOUS
62
7
370
-1
100
AcDbCircle
10
6.270572011
20
3.6642449011
40
0.675
100
AcDbArc
50
187.426204786
51
225.383665251
0
CIRCLE
5
244
100
AcDbEntity
8
0
6
CONTINUOUS
62
7
370
-1
100
AcDbCircle
10
8.770572011
20
2.8284851724
40
0.140625
0
CIRCLE
5
245
100
AcDbEntity
8
0
6
CONTINUOUS
62
7
370
-1
100
AcDbCircle
10
8.770572011
20
2.8284851724
40
0.0859375
0
ARC
5
246
100
AcDbEntity
8
0
6
CONTINUOUS
62
7
370
-1
100
AcDbCircle
10
8.770572011
20
3.6642449011
40
0.675
100
AcDbArc
50
327.142183323
51
29.9972600256
0
CIRCLE
5
247
100
AcDbEntity
8
0
6
CONTINUOUS
62
7
370
-1
100
AcDbCircle
10
9.2561520752
20
3.8638369881
40
0.03125
0
CIRCLE
5
248
100
AcDbEntity
8
0
6
CONTINUOUS
62
7
370
-1
100
AcDbCircle
10
9.2283826617
20
3.3685518033
40
0.03125
0
ARC
5
249
100
AcDbEntity
8
0
6
CONTINUOUS
62
7
370
-1
100
AcDbCircle
10
7.520572011
20
6.9534851724
40
3.39375
100
AcDbArc
50
281.07342923
51
300.542849958
0
ARC
5
24A
100
AcDbEntity
8
0
6
CONTINUOUS
62
7
370
-1
100
AcDbCircle
10
7.520572011
20
6.9534851724
40
3.39375
100
AcDbArc
50
230.064511295
51
280.99743066
0
ENDSEC
0
SECTION
2
OBJECTS
0
DICTIONARY
5
C
330
0
100
AcDbDictionary
281
1
3
ACAD_GROUP
350
D
0
DICTIONARY
5
D
330
C
100
AcDbDictionary
281
1
0
ENDSEC
0
EOF
