999
dxfrw 0.5.10
0
SECTION
2
HEADER
9
$ACADVER
1
AC1021
9
$HANDSEED
5
20000
9
$DWGCODEPAGE
3
ANSI_1252
9
$INSBASE
10
0
20
0
30
0
9
$EXTMIN
10
0.4661741383
20
21.0817350441
30
0
9
$EXTMAX
10
6.7742208908
20
33.8492448651
30
0
9
$LIMMIN
10
0
20
0
9
$LIMMAX
10
44
20
34
9
$ORTHOMODE
70
0
9
$LTSCALE
40
2.42
9
$TEXTSTYLE
7
STANDARD
9
$CLAYER
8
0
9
$DIMASZ
40
0.1875
9
$DIMLFAC
40
1
9
$DIMSCALE
40
1
9
$DIMEXO
40
0.0625
9
$DIMEXE
40
0.125
9
$DIMTXT
40
0.15625
9
$DIMTSZ
40
0
9
$DIMAUNIT
70
0
9
$DIMADEC
70
0
9
$DIMLUNIT
70
2
9
$DIMSTYLE
2
Standard
9
$DIMGAP
40
0.09
9
$DIMTIH
70
0
9
$LUNITS
70
2
9
$LUPREC
70
4
9
$AUNITS
70
0
9
$AUPREC
70
2
9
$SPLINESEGS
70
8
9
$GRIDMODE
70
0
9
$SNAPSTYLE
70
0
9
$VIEWCTR
10
22
20
17
9
$PINSBASE
10
0
20
0
30
0
9
$PLIMMIN
10
0
20
0
9
$PLIMMAX
10
3.07881276418e-08
20
4.35432090934e-08
9
$INSUNITS
70
1
9
$PSVPSCALE
40
1
0
ENDSEC
0
SECTION
2
CLASSES
0
ENDSEC
0
SECTION
2
TABLES
0
TABLE
2
VPORT
5
8
330
0
100
AcDbSymbolTable
70
1
0
VPORT
5
31
330
2
100
AcDbSymbolTableRecord
100
AcDbViewportTableRecord
2
*ACTIVE
70
0
10
0
20
0
11
1
21
1
12
11.4090275229
22
17.7573577982
13
0
23
0
14
10
24
10
15
10
25
10
16
0
26
0
36
1
17
0
27
0
37
0
40
17.408
41
1.80504587156
42
50
43
0
44
0
50
0
51
0
71
0
72
100
73
1
74
3
75
0
76
0
77
0
78
0
281
0
65
1
110
0
120
0
130
0
111
1
121
0
131
0
112
0
122
1
132
0
79
0
146
0
348
10020
60
7
61
5
292
1
282
1
141
0
142
0
63
250
421
3358443
0
ENDTAB
0
TABLE
2
LTYPE
5
5
330
0
100
AcDbSymbolTable
70
4
0
LTYPE
5
14
330
5
100
AcDbSymbolTableRecord
100
AcDbLinetypeTableRecord
2
ByBlock
70
0
3

72
65
73
0
40
0
0
LTYPE
5
15
330
5
100
AcDbSymbolTableRecord
100
AcDbLinetypeTableRecord
2
ByLayer
70
0
3

72
65
73
0
40
0
0
LTYPE
5
16
330
5
100
AcDbSymbolTableRecord
100
AcDbLinetypeTableRecord
2
Continuous
70
0
3
Solid line
72
65
73
0
40
0
0
LTYPE
5
32
330
5
100
AcDbSymbolTableRecord
100
AcDbLinetypeTableRecord
2
DOT
70
0
3
Dot . . . . . . . . . . . . . . . . . . . . . .
72
65
73
2
40
6.35
49
0
74
0
49
-6.35
74
0
0
LTYPE
5
33
330
5
100
AcDbSymbolTableRecord
100
AcDbLinetypeTableRecord
2
DOT2
70
0
3
Dot (.5x) .....................................
72
65
73
2
40
3.175
49
0
74
0
49
-3.175
74
0
0
LTYPE
5
34
330
5
100
AcDbSymbolTableRecord
100
AcDbLinetypeTableRecord
2
DOTX2
70
0
3
Dot (2x) .  .  .  .  .  .  .  .  .  .  .  .  .
72
65
73
2
40
12.7
49
0
74
0
49
-12.7
74
0
0
LTYPE
5
35
330
5
100
AcDbSymbolTableRecord
100
AcDbLinetypeTableRecord
2
DASHED
70
0
3
Dot . . . . . . . . . . . . . . . . . . . . . .
72
65
73
2
40
19.05
49
12.7
74
0
49
-6.35
74
0
0
LTYPE
5
36
330
5
100
AcDbSymbolTableRecord
100
AcDbLinetypeTableRecord
2
DASHED2
70
0
3
Dashed (.5x) _ _ _ _ _ _ _ _ _ _ _ _ _ _ _ _ _
72
65
73
2
40
9.525
49
6.35
74
0
49
-3.175
74
0
0
LTYPE
5
37
330
5
100
AcDbSymbolTableRecord
100
AcDbLinetypeTableRecord
2
DASHEDX2
70
0
3
Dashed (2x) ____  ____  ____  ____  ____  ___
72
65
73
2
40
38.1
49
25.4
74
0
49
-12.7
74
0
0
LTYPE
5
38
330
5
100
AcDbSymbolTableRecord
100
AcDbLinetypeTableRecord
2
DASHDOT
70
0
3
Dash dot __ . __ . __ . __ . __ . __ . __ . __
72
65
73
4
40
25.4
49
12.7
74
0
49
-6.35
74
0
49
0
74
0
49
-6.35
74
0
0
LTYPE
5
39
330
5
100
AcDbSymbolTableRecord
100
AcDbLinetypeTableRecord
2
DASHDOT2
70
0
3
Dash dot (.5x) _._._._._._._._._._._._._._._.
72
65
73
4
40
12.7
49
6.35
74
0
49
-3.175
74
0
49
0
74
0
49
-3.175
74
0
0
LTYPE
5
3A
330
5
100
AcDbSymbolTableRecord
100
AcDbLinetypeTableRecord
2
DASHDOTX2
70
0
3
Dash dot (2x) ____  .  ____  .  ____  .  ___
72
65
73
4
40
50.8
49
25.4
74
0
49
-12.7
74
0
49
0
74
0
49
-12.7
74
0
0
LTYPE
5
3B
330
5
100
AcDbSymbolTableRecord
100
AcDbLinetypeTableRecord
2
DIVIDE
70
0
3
Divide ____ . . ____ . . ____ . . ____ . . ____
72
65
73
6
40
31.75
49
12.7
74
0
49
-6.35
74
0
49
0
74
0
49
-6.35
74
0
49
0
74
0
49
-6.35
74
0
0
LTYPE
5
3C
330
5
100
AcDbSymbolTableRecord
100
AcDbLinetypeTableRecord
2
DIVIDE2
70
0
3
Divide (.5x) __..__..__..__..__..__..__..__.._
72
65
73
6
40
15.875
49
6.35
74
0
49
-3.175
74
0
49
0
74
0
49
-3.175
74
0
49
0
74
0
49
-3.175
74
0
0
LTYPE
5
3D
330
5
100
AcDbSymbolTableRecord
100
AcDbLinetypeTableRecord
2
DIVIDEX2
70
0
3
Divide (2x) ________  .  .  ________  .  .  _
72
65
73
6
40
63.5
49
25.4
74
0
49
-12.7
74
0
49
0
74
0
49
-12.7
74
0
49
0
74
0
49
-12.7
74
0
0
LTYPE
5
3E
330
5
100
AcDbSymbolTableRecord
100
AcDbLinetypeTableRecord
2
BORDER
70
0
3
Border __ __ . __ __ . __ __ . __ __ . __ __ .
72
65
73
6
40
44.45
49
12.7
74
0
49
-6.35
74
0
49
12.7
74
0
49
-6.35
74
0
49
0
74
0
49
-6.35
74
0
0
LTYPE
5
3F
330
5
100
AcDbSymbolTableRecord
100
AcDbLinetypeTableRecord
2
BORDER2
70
0
3
Border (.5x) __.__.__.__.__.__.__.__.__.__.__.
72
65
73
6
40
22.225
49
6.35
74
0
49
-3.175
74
0
49
6.35
74
0
49
-3.175
74
0
49
0
74
0
49
-3.175
74
0
0
LTYPE
5
40
330
5
100
AcDbSymbolTableRecord
100
AcDbLinetypeTableRecord
2
BORDERX2
70
0
3
Border (2x) ____  ____  .  ____  ____  .  ___
72
65
73
6
40
88.9
49
25.4
74
0
49
-12.7
74
0
49
25.4
74
0
49
-12.7
74
0
49
0
74
0
49
-12.7
74
0
0
LTYPE
5
41
330
5
100
AcDbSymbolTableRecord
100
AcDbLinetypeTableRecord
2
CENTER
70
0
3
Center ____ _ ____ _ ____ _ ____ _ ____ _ ____
72
65
73
4
40
50.8
49
31.75
74
0
49
-6.35
74
0
49
6.35
74
0
49
-6.35
74
0
0
LTYPE
5
42
330
5
100
AcDbSymbolTableRecord
100
AcDbLinetypeTableRecord
2
CENTER2
70
0
3
Center (.5x) ___ _ ___ _ ___ _ ___ _ ___ _ ___
72
65
73
4
40
28.575
49
19.05
74
0
49
-3.175
74
0
49
3.175
74
0
49
-3.175
74
0
0
LTYPE
5
43
330
5
100
AcDbSymbolTableRecord
100
AcDbLinetypeTableRecord
2
CENTERX2
70
0
3
Center (2x) ________  __  ________  __  _____
72
65
73
4
40
101.6
49
63.5
74
0
49
-12.7
74
0
49
12.7
74
0
49
-12.7
74
0
0
ENDTAB
0
TABLE
2
LAYER
5
2
330
0
100
AcDbSymbolTable
70
1
0
LAYER
5
10
330
2
100
AcDbSymbolTableRecord
100
AcDbLayerTableRecord
2
0
70
0
62
7
6
CONTINUOUS
370
-3
390
F
0
ENDTAB
0
TABLE
2
STYLE
5
3
330
0
100
AcDbSymbolTable
70
3
0
STYLE
5
44
330
2
100
AcDbSymbolTableRecord
100
AcDbTextStyleTableRecord
2
Standard
70
0
40
0
41
1
50
0
71
0
42
1
3
txt
4

0
ENDTAB
0
TABLE
2
VIEW
5
6
330
0
100
AcDbSymbolTable
70
0
0
ENDTAB
0
TABLE
2
UCS
5
7
330
0
100
AcDbSymbolTable
70
0
0
ENDTAB
0
TABLE
2
APPID
5
9
330
0
100
AcDbSymbolTable
70
1
0
APPID
5
12
330
9
100
AcDbSymbolTableRecord
100
AcDbRegAppTableRecord
2
ACAD
70
0
0
ENDTAB
0
TABLE
2
DIMSTYLE
5
A
330
0
100
AcDbSymbolTable
70
1
100
AcDbDimStyleTable
71
1
0
DIMSTYLE
105
45
330
A
100
AcDbSymbolTableRecord
100
AcDbDimStyleTableRecord
2
Standard
70
0
40
1
41
0.1875
42
0.0625
43
0.38
44
0.125
45
0
46
0
47
0
48
0
140
0.15625
141
0.09
142
0
143
25.4
144
1
145
0
146
1
147
0.09
148
0
71
0
72
0
73
0
74
1
75
0
76
0
77
0
78
0
79
0
170
0
171
2
172
0
173
0
174
0
175
0
176
0
177
0
178
0
179
0
271
4
272
4
273
2
274
2
275
0
276
0
277
2
278
46
279
0
280
0
281
0
282
0
283
1
284
0
285
0
286
0
288
0
289
3
340
Standard
341

371
-2
372
-2
0
ENDTAB
0
TABLE
2
BLOCK_RECORD
5
1
330
0
100
AcDbSymbolTable
70
2
0
BLOCK_RECORD
5
1F
330
1
100
AcDbSymbolTableRecord
100
AcDbBlockTableRecord
2
*Model_Space
70
0
280
1
281
0
0
BLOCK_RECORD
5
1E
330
1
100
AcDbSymbolTableRecord
100
AcDbBlockTableRecord
2
*Paper_Space
70
0
280
1
281
0
0
ENDTAB
0
ENDSEC
0
SECTION
2
BLOCKS
0
BLOCK
5
20
330
1F
100
AcDbEntity
8
0
100
AcDbBlockBegin
2
*Model_Space
70
0
10
0
20
0
30
0
3
*Model_Space
1

0
ENDBLK
5
21
330
1F
100
AcDbEntity
8
0
100
AcDbBlockEnd
0
BLOCK
5
1C
330
1B
100
AcDbEntity
8
0
100
AcDbBlockBegin
2
*Paper_Space
70
0
10
0
20
0
30
0
3
*Paper_Space
1

0
ENDBLK
5
1D
330
1F
100
AcDbEntity
8
0
100
AcDbBlockEnd
0
ENDSEC
0
SECTION
2
ENTITIES
0
LWPOLYLINE
5
46
100
AcDbEntity
8
0
6
CONTINUOUS
62
7
370
-1
100
AcDbPolyline
90
28
70
0
43
0
10
5.5655881631
20
31.9891108056
10
5.5416801738
20
31.9913288431
10
5.5185648109
20
31.9921238157
10
5.4962420745
20
31.9914957234
10
5.4747449342
20
31.989416833
10
5.4540404204
20
31.9859148777
10
5.4340296238
20
31.9810730574
10
5.4147019433
20
31.9749250577
10
5.3960679801
20
31.9674371929
10
5.378060629
20
31.9585916057
10
5.3606579959
20
31.9484164799
10
5.343881975
20
31.9368836316
10
5.3277311428
20
31.9238906518
10
5.3121742942
20
31.9094278531
10
5.2972426344
20
31.8935049229
10
5.2830283553
20
31.8760485145
10
5.2695197693
20
31.8570292982
10
5.256728564
20
31.8364766038
10
5.244781994
20
31.8144050732
10
5.2336884244
20
31.7907798192
10
5.2234394901
20
31.7656357291
10
5.2141373503
20
31.7390921071
10
5.2058055593
20
31.711166896
10
5.1984205627
20
31.6818421531
10
5.1920138565
20
31.6511833533
10
5.1865959391
20
31.6192123217
10
5.1821563121
20
31.5859072332
10
5.1786949753
20
31.551268088
0
LWPOLYLINE
5
47
100
AcDbEntity
8
0
6
CONTINUOUS
62
7
370
-1
100
AcDbPolyline
90
10
70
0
43
0
10
5.9421159448
20
31.8782648791
10
5.8966295306
20
31.8968281061
10
5.8520375278
20
31.9138765934
10
5.8083399364
20
31.9294103411
10
5.7655126403
20
31.9434920338
10
5.7235797556
20
31.9560589867
10
5.6826136307
20
31.9669231458
10
5.6426383817
20
31.9760218263
10
5.6036298925
20
31.9834177129
10
5.5655881631
20
31.9891108056
0
LWPOLYLINE
5
48
100
AcDbEntity
8
0
6
CONTINUOUS
62
7
370
-1
100
AcDbPolyline
90
28
70
0
43
0
10
5.3001763985
20
32.6543706479
10
5.3241749514
20
32.6521597642
10
5.3473309854
20
32.6513665553
10
5.3696445004
20
32.6519910211
10
5.3910756483
20
32.6540725404
10
5.4116642773
20
32.6575717346
10
5.4315299315
20
32.6623704672
10
5.4506790527
20
32.6684209047
10
5.4691051992
20
32.6757708808
10
5.4869085888
20
32.6844457599
10
5.5041099927
20
32.6944145492
10
5.5206886398
20
32.7057082415
10
5.5366824353
20
32.7184451807
10
5.5521279038
20
32.7326168017
10
5.5669885207
20
32.7482316695
10
5.5811926175
20
32.7654338238
10
5.5947706994
20
32.7842617657
10
5.6076922611
20
32.804676994
10
5.6197941191
20
32.8267080446
10
5.6310683796
20
32.8504131408
10
5.6415229362
20
32.8757340592
10
5.6510182864
20
32.9025246657
10
5.6595264428
20
32.9307955836
10
5.6670753926
20
32.9605361896
10
5.6736095951
20
32.9915684788
10
5.6791105368
20
33.0238331164
10
5.6835967312
20
33.0573894372
10
5.6870681784
20
33.0922374413
0
LWPOLYLINE
5
49
100
AcDbEntity
8
0
6
CONTINUOUS
62
7
370
-1
100
AcDbPolyline
90
13
70
0
43
0
10
4.9236978903
20
32.7651938707
10
4.9592955861
20
32.7506714621
10
4.9941105042
20
32.7370923112
10
5.0281426445
20
32.7244564179
10
5.0613853882
20
32.7127460185
10
5.0938453542
20
32.7019788767
10
5.1255423986
20
32.692208284
10
5.1564670893
20
32.6834611966
10
5.1866288585
20
32.6757106582
10
5.2160758587
20
32.6689290918
10
5.2448241409
20
32.6631073051
10
5.2728576541
20
32.6582544905
10
5.3001763985
20
32.6543706479
0
LWPOLYLINE
5
4A
100
AcDbEntity
8
0
6
CONTINUOUS
62
7
370
-1
100
AcDbPolyline
90
28
70
0
43
0
10
5.1002523597
20
32.1890348444
10
5.1024684473
20
32.2130633809
10
5.1032584667
20
32.2362631386
10
5.1026224178
20
32.2586341175
10
5.1005248053
20
32.2801407502
10
5.0970011246
20
32.300818604
10
5.0921578619
20
32.3207743812
10
5.0860339374
20
32.3400146831
10
5.0785904308
20
32.3585329084
10
5.0698170675
20
32.3764159555
10
5.0597477123
20
32.3936833619
10
5.0483485002
20
32.4103155901
10
5.0355075621
20
32.4263409267
10
5.0212288969
20
32.441791895
10
5.0055085057
20
32.4566359718
10
4.9882225224
20
32.4708038733
10
4.9693349099
20
32.4843209777
10
4.9488817053
20
32.4971619069
10
4.926847154
20
32.5091812433
10
4.9031813651
20
32.5203748484
10
4.8779342294
20
32.5307468606
10
4.8512396648
20
32.540164278
10
4.8230870554
20
32.5485986685
10
4.793487017
20
32.5560784642
10
4.7626053152
20
32.562555959
10
4.7304972053
20
32.568015251
10
4.697107432
20
32.5724722421
10
4.6624359953
20
32.5759269325
0
LWPOLYLINE
5
4B
100
AcDbEntity
8
0
6
CONTINUOUS
62
7
370
-1
100
AcDbPolyline
90
13
70
0
43
0
10
4.9894315995
20
31.81256296
10
5.0040304418
20
31.8483611421
10
5.0176615763
20
31.8833174158
10
5.0303250029
20
31.917431781
10
5.0420311164
20
31.9506841837
10
5.052769522
20
31.9830946779
10
5.0625090358
20
32.014723426
10
5.0712264727
20
32.0455595463
10
5.0789450177
20
32.0756139204
10
5.0857030418
20
32.1049793565
10
5.0915133354
20
32.1336867905
10
5.096363108
20
32.1617052865
10
5.1002523597
20
32.1890348444
0
LWPOLYLINE
5
4C
100
AcDbEntity
8
0
6
CONTINUOUS
62
7
370
-1
100
AcDbPolyline
90
28
70
0
43
0
10
5.7655122019
20
32.454446609
10
5.7632941642
20
32.4305386172
10
5.7624991918
20
32.4074232518
10
5.7631272846
20
32.3851005127
10
5.7652061759
20
32.3636033697
10
5.7687081324
20
32.3428988531
10
5.7735499544
20
32.322888054
10
5.7796979563
20
32.3035603713
10
5.7871858237
20
32.2849264061
10
5.7960314136
20
32.2669190535
10
5.806206542
20
32.2495164195
10
5.817739393
20
32.2327403982
10
5.8307323753
20
32.2165895661
10
5.8451951762
20
32.2010327182
10
5.8611181084
20
32.1861010596
10
5.8785745182
20
32.1718867819
10
5.8975937353
20
32.1583781978
10
5.9181464299
20
32.1455869947
10
5.94021796
20
32.1336404269
10
5.9638432126
20
32.1225468597
10
5.9889873007
20
32.1122979278
10
6.0155309205
20
32.10299579
10
6.0434561292
20
32.0946640005
10
6.0727808696
20
32.0872790052
10
6.1034396666
20
32.0808723
10
6.1354106949
20
32.0754543838
10
6.1687157798
20
32.0710147577
10
6.2033549211
20
32.0675534218
0
LWPOLYLINE
5
4D
100
AcDbEntity
8
0
6
CONTINUOUS
62
7
370
-1
100
AcDbPolyline
90
10
70
0
43
0
10
5.8763341446
20
32.8309220699
10
5.8578065143
20
32.785508051
10
5.8407832554
20
32.7409732312
10
5.8252643681
20
32.6973176107
10
5.8111843207
20
32.6545189842
10
5.7986086447
20
32.612599557
10
5.7877339354
20
32.5716259443
10
5.7786257243
20
32.5316203513
10
5.7712184798
20
32.4925605729
10
5.7655122019
20
32.454446609
0
LWPOLYLINE
5
4E
100
AcDbEntity
8
0
6
CONTINUOUS
62
7
370
-1
100
AcDbPolyline
90
10
70
0
43
0
10
2.2673344136
20
21.0817350441
10
2.3888152481
20
21.0844961744
10
2.5090399246
20
21.0924287112
10
2.6280084431
20
21.1055326546
10
2.7457629857
20
21.1238387346
10
2.8622613704
20
21.1473162212
10
2.9773770507
20
21.1758729236
10
3.0910678445
20
21.2094781118
10
3.2033759339
20
21.2481625158
10
3.3143013189
20
21.2919261357
0
LWPOLYLINE
5
4F
100
AcDbEntity
8
0
6
CONTINUOUS
62
7
370
-1
100
AcDbPolyline
90
10
70
0
43
0
10
1.2203675084
20
21.2919261357
10
1.3312928934
20
21.2481625158
10
1.4436009828
20
21.2094781118
10
1.5572917765
20
21.1758729236
10
1.6724074568
20
21.1473162212
10
1.7889058415
20
21.1238387346
10
1.9066603842
20
21.1055326546
10
2.0256289027
20
21.0924287112
10
2.1458535792
20
21.0844961744
10
2.2673344136
20
21.0817350441
0
LWPOLYLINE
5
50
100
AcDbEntity
8
0
6
CONTINUOUS
62
7
370
-1
100
AcDbPolyline
90
31
70
0
43
0
10
1.2943448052
20
21.4777251209
10
1.2870280708
20
21.4807292265
10
1.2794869201
20
21.484036858
10
1.2717213533
20
21.4876480154
10
1.2636888376
20
21.4915123196
10
1.2554319058
20
21.4956801496
10
1.2470781555
20
21.5003026424
10
1.2386135762
20
21.5053823866
10
1.2300521784
20
21.5109167934
10
1.2215635917
20
21.5170492333
10
1.2131099507
20
21.5238440607
10
1.2047291207
20
21.5312369211
10
1.1967043272
20
21.5391781217
10
1.1890553122
20
21.5476997605
10
1.1817623336
20
21.5567697394
10
1.1750493908
20
21.5662420715
10
1.1689671339
20
21.5761513375
10
1.1634649127
20
21.5864629567
10
1.1586147762
20
21.5969271995
10
1.1544553013
20
21.6075603557
10
1.1509479111
20
21.6183461357
10
1.1480489237
20
21.6289859407
10
1.1458121801
20
21.6394195886
10
1.1441838393
20
21.6497072615
10
1.1429586967
20
21.6597309076
10
1.1421388732
20
21.6694740512
10
1.1417222479
20
21.6789531678
10
1.1414972536
20
21.6880996319
10
1.1413933678
20
21.6968905683
10
1.1414811129
20
21.7053488521
10
1.141760489
20
21.7134744834
0
LWPOLYLINE
5
51
100
AcDbEntity
8
0
6
CONTINUOUS
62
7
370
-1
100
AcDbPolyline
90
13
70
0
43
0
10
2.2673344136
20
21.2817350441
10
2.1823076902
20
21.2831937317
10
2.0979933543
20
21.2873759034
10
2.014391406
20
21.2942815593
10
1.9314968128
20
21.3039256952
10
1.8493146071
20
21.3162933153
10
1.7678598865
20
21.3313394318
10
1.6871411698
20
21.3490508806
10
1.6071499382
20
21.3694408259
10
1.5278757319
20
21.3925037722
10
1.4493150643
20
21.4182378875
10
1.3714714221
20
21.4466450037
10
1.2943448052
20
21.4777251209
0
LWPOLYLINE
5
52
100
AcDbEntity
8
0
6
CONTINUOUS
62
7
370
-1
100
AcDbPolyline
90
25
70
0
43
0
10
0.8552055819
20
21.7929293743
10
0.8569211584
20
21.7690874693
10
0.8595671435
20
21.7445116219
10
0.8631435372
20
21.7192018322
10
0.8674823799
20
21.6928657325
10
0.8727516313
20
21.6657956905
10
0.8794551693
20
21.6388688092
10
0.8877540984
20
21.6121797897
10
0.8974873143
20
21.5856339308
10
0.9086753821
20
21.5598242323
10
0.921377433
20
21.5348384251
10
0.9355343358
20
21.5105887783
10
0.9509892628
20
21.4874050983
10
0.967744602
20
21.4653941733
10
0.9857979654
20
21.4444492152
10
1.0049853611
20
21.4245796663
10
1.025313895
20
21.4057913356
10
1.0467764613
20
21.3880784141
10
1.0691877504
20
21.3714329176
10
1.0925911974
20
21.3559275089
10
1.1169433672
20
21.3414895252
10
1.1419286447
20
21.3278929934
10
1.1674418249
20
21.315062589
10
1.1935881128
20
21.3030736364
10
1.2203675084
20
21.2919261357
0
LWPOLYLINE
5
53
100
AcDbEntity
8
0
6
CONTINUOUS
62
7
370
-1
100
AcDbPolyline
90
27
70
0
43
0
10
1.141760489
20
21.7134744834
10
1.1440759784
20
21.7946629871
10
1.1473324386
20
21.8733225527
10
1.1515298693
20
21.9494531803
10
1.1567010223
20
22.0230156961
10
1.1628131458
20
22.0940492739
10
1.1697679856
20
22.1626714343
10
1.177575373
20
22.2288519875
10
1.1862254766
20
22.2926211233
10
1.1955905475
20
22.3541869315
10
1.2056355571
20
22.4134290259
10
1.2163955341
20
22.4704677926
10
1.2278478157
20
22.5258724807
10
1.2399245247
20
22.5795407359
10
1.2526935383
20
22.6315749124
10
1.2663358245
20
22.6828513215
10
1.2807937678
20
22.7333710931
10
1.2961249837
20
22.7831330973
10
1.3126832864
20
22.8330102549
10
1.3304786418
20
22.882995288
10
1.3495010841
20
22.9330954745
10
1.3700745296
20
22.9842055692
10
1.3922228733
20
23.0363767281
10
1.4159222204
20
23.0895577952
10
1.4414248024
20
23.1444900571
10
1.4688146964
20
23.2014206092
10
1.4980078254
20
23.2601023561
0
LWPOLYLINE
5
54
100
AcDbEntity
8
0
6
CONTINUOUS
62
7
370
-1
100
AcDbPolyline
90
25
70
0
43
0
10
1.651829568
20
25.4402651551
10
1.6178532325
20
25.2591478154
10
1.5809330468
20
25.0829117423
10
1.5410690109
20
24.9115569356
10
1.4980765283
20
24.7453303246
10
1.4521401954
20
24.58398498
10
1.4038138017
20
24.4267801147
10
1.3526678372
20
24.2739655224
10
1.2991318117
20
24.1252914094
10
1.2450480449
20
23.979267607
10
1.189834147
20
23.8359272509
10
1.1340725077
20
23.6952372055
10
1.0813526155
20
23.5556078958
10
1.0319365796
20
23.4171445361
10
0.9855622909
20
23.2797419121
10
0.9450329105
20
23.1414948057
10
0.9111563584
20
23.0023683993
10
0.8831247148
20
22.8623975105
10
0.8613173805
20
22.7197813743
10
0.8461103445
20
22.5743643081
10
0.8371276179
20
22.4263019945
10
0.8336206349
20
22.274260716
10
0.8353398736
20
22.1177959003
10
0.8425348559
20
21.9573521197
10
0.8552055819
20
21.7929293743
0
LWPOLYLINE
5
55
100
AcDbEntity
8
0
6
CONTINUOUS
62
7
370
-1
100
AcDbPolyline
90
19
70
0
43
0
10
1.836289453
20
25.1168825321
10
1.8240102867
20
25.0809640958
10
1.8139114079
20
25.043775313
10
1.8059928166
20
25.0053161836
10
1.8001509816
20
24.965462927
10
1.7964894341
20
24.9243393238
10
1.7953187676
20
24.882316716
10
1.7966712224
20
24.8393750267
10
1.8005145583
20
24.7955343328
10
1.8070626475
20
24.7512262063
10
1.8163269269
20
24.706453403
10
1.8282959597
20
24.661213167
10
1.8431493081
20
24.6159288028
10
1.8609089879
20
24.5705909088
10
1.8815529833
20
24.5252088865
10
1.9051948094
20
24.4802342445
10
1.9318723045
20
24.4358174856
10
1.9615476302
20
24.391808107
10
1.9942207865
20
24.3482061086
0
LINE
5
56
100
AcDbEntity
8
0
6
CONTINUOUS
62
7
370
-1
100
AcDbLine
10
1.8798810917
20
25.2340352915
11
1.836289453
21
25.1168825321
0
LINE
5
57
100
AcDbEntity
8
0
6
CONTINUOUS
62
7
370
-1
100
AcDbLine
10
1.9675005435
20
25.0680598967
11
2.0110921822
21
25.1852126561
0
LINE
5
58
100
AcDbEntity
8
0
6
CONTINUOUS
62
7
370
-1
100
AcDbLine
10
1.4980078254
20
23.2601023561
11
1.5312513704
21
23.3248757021
0
LINE
5
59
100
AcDbEntity
8
0
6
CONTINUOUS
62
7
370
-1
100
AcDbLine
10
1.5312513704
20
23.3248757021
11
1.537146953
21
23.3361754966
0
LINE
5
5A
100
AcDbEntity
8
0
6
CONTINUOUS
62
7
370
-1
100
AcDbLine
10
1.537146953
20
23.3361754966
11
1.5396967387
21
23.3410041166
0
LINE
5
5B
100
AcDbEntity
8
0
6
CONTINUOUS
62
7
370
-1
100
AcDbLine
10
1.5396967387
20
23.3410041166
11
1.542411103
21
23.3460903464
0
LWPOLYLINE
5
5C
100
AcDbEntity
8
0
6
CONTINUOUS
62
7
370
-1
100
AcDbPolyline
90
3
70
0
43
0
10
1.542411103
20
23.3460903464
10
1.5453550656
20
23.3515223457
10
1.5469207684
20
23.3543784496
0
LWPOLYLINE
5
5D
100
AcDbEntity
8
0
6
CONTINUOUS
62
7
370
-1
100
AcDbPolyline
90
74
70
0
43
0
10
1.5469207684
20
23.3543784496
10
1.5503010776
20
23.3604417514
10
1.5521156841
20
23.3636489493
10
1.5540262784
20
23.3669770725
10
1.5560329074
20
23.3704272986
10
1.5581355244
20
23.37399845
10
1.5603476915
20
23.3776927329
10
1.5626688196
20
23.3815092571
10
1.5650994979
20
23.3854489128
10
1.567655056
20
23.3895165762
10
1.5703337851
20
23.3937123121
10
1.5731373941
20
23.3980360557
10
1.5760863393
20
23.4024924891
10
1.5791785573
20
23.4070831765
10
1.5824161115
20
23.4118065538
10
1.5858256483
20
23.4166626108
10
1.5894040352
20
23.4216527344
10
1.5931544048
20
23.4267755378
10
1.5971128009
20
23.4320268499
10
1.6012666247
20
23.4374012324
10
1.605628475
20
23.4429041237
10
1.6102721927
20
23.4485476669
10
1.6151769768
20
23.4543326203
10
1.6203636283
20
23.4602582257
10
1.6259683912
20
23.4663343522
10
1.6319969154
20
23.4726031574
10
1.6384435509
20
23.4790224836
10
1.6454275919
20
23.485475727
10
1.6530218482
20
23.4920336476
10
1.6611535101
20
23.4986254853
10
1.669723442
20
23.5049223566
10
1.6787617502
20
23.5109338459
10
1.6882383285
20
23.5166503688
10
1.6979637228
20
23.5217142886
10
1.7079394764
20
23.5260957951
10
1.7181640459
20
23.5298246985
10
1.7284433474
20
23.5326327927
10
1.7387811808
20
23.5344768919
10
1.7491737461
20
23.535400182
10
1.7594155594
20
23.5352640144
10
1.7695207818
20
23.5339916841
10
1.7794752522
20
23.5316598961
10
1.7890310039
20
23.528360117
10
1.798159353
20
23.524024489
10
1.8068889833
20
23.51872087
10
1.8150579792
20
23.5127443
10
1.8226225448
20
23.5060459196
10
1.829626476
20
23.4986745883
10
1.8360392441
20
23.491071925
10
1.8418220481
20
23.4832626393
10
1.847013689
20
23.4752220216
10
1.8517000415
20
23.4673175618
10
1.855855539
20
23.4596452575
10
1.8595057482
20
23.4521091111
10
1.8628132436
20
23.4447886196
10
1.8657906694
20
23.4377201458
10
1.8684253815
20
23.4308673268
10
1.8708420222
20
23.4242005714
10
1.8730583723
20
23.417718662
10
1.875056651
20
23.4114228161
10
1.8769081582
20
23.4052870953
10
1.8786235073
20
23.3993047544
10
1.8801920849
20
23.3934825385
10
1.8816533503
20
23.3878147444
10
1.8830119266
20
23.3822994449
10
1.8842631907
20
23.3769385672
10
1.8854327319
20
23.3717321899
10
1.8865226503
20
23.3666823132
10
1.8875308458
20
23.3617869368
10
1.8884766079
20
23.3570401391
10
1.8893613132
20
23.3524438862
10
1.890183585
20
23.3479962119
10
1.8909585825
20
23.3436852955
10
1.891687121
20
23.3395123637
0
LWPOLYLINE
5
5E
100
AcDbEntity
8
0
6
CONTINUOUS
62
7
370
-1
100
AcDbPolyline
90
3
70
0
43
0
10
1.9022422851
20
23.2710993315
10
1.9026138663
20
23.2689214663
10
1.9033745155
20
23.2646250942
0
LINE
5
5F
100
AcDbEntity
8
0
6
CONTINUOUS
62
7
370
-1
100
AcDbLine
10
1.891687121
20
23.3395123637
11
1.8930150889
21
23.3315612725
0
LINE
5
60
100
AcDbEntity
8
0
6
CONTINUOUS
62
7
370
-1
100
AcDbLine
10
1.9015212241
20
23.2754955371
11
1.9022422851
21
23.2710993315
0
LINE
5
61
100
AcDbEntity
8
0
6
CONTINUOUS
62
7
370
-1
100
AcDbLine
10
1.8930150889
20
23.3315612725
11
1.8942063435
21
23.3240968121
0
LINE
5
62
100
AcDbEntity
8
0
6
CONTINUOUS
62
7
370
-1
100
AcDbLine
10
1.90080247
20
23.2800559925
11
1.9015212241
21
23.2754955371
0
LINE
5
63
100
AcDbEntity
8
0
6
CONTINUOUS
62
7
370
-1
100
AcDbLine
10
1.8942063435
20
23.3240968121
11
1.8952917387
21
23.31706212
0
LINE
5
64
100
AcDbEntity
8
0
6
CONTINUOUS
62
7
370
-1
100
AcDbLine
10
1.899696396
20
23.2873480811
11
1.90080247
21
23.2800559925
0
LINE
5
65
100
AcDbEntity
8
0
6
CONTINUOUS
62
7
370
-1
100
AcDbLine
10
1.8952917387
20
23.31706212
11
1.899696396
21
23.2873480811
0
LINE
5
66
100
AcDbEntity
8
0
6
CONTINUOUS
62
7
370
-1
100
AcDbLine
10
2.1973344139
20
23.7680887097
11
2.1973344136
21
23.331207318
0
LINE
5
67
100
AcDbEntity
8
0
6
CONTINUOUS
62
7
370
-1
100
AcDbLine
10
2.3373344136
20
23.331207318
11
2.3373344139
21
23.7680887103
0
LINE
5
68
100
AcDbEntity
8
0
6
CONTINUOUS
62
7
370
-1
100
AcDbLine
10
2.6346330193
20
23.2850833069
11
2.6393296721
21
23.3167420707
0
LINE
5
69
100
AcDbEntity
8
0
6
CONTINUOUS
62
7
370
-1
100
AcDbLine
10
2.6338818186
20
23.2801561815
11
2.6346330193
21
23.2850833069
0
LINE
5
6A
100
AcDbEntity
8
0
6
CONTINUOUS
62
7
370
-1
100
AcDbLine
10
2.6393296721
20
23.3167420707
11
2.6405671626
21
23.3247665237
0
LINE
5
6B
100
AcDbEntity
8
0
6
CONTINUOUS
62
7
370
-1
100
AcDbLine
10
2.6331499249
20
23.2755099311
11
2.6338818186
21
23.2801561815
0
LWPOLYLINE
5
6C
100
AcDbEntity
8
0
6
CONTINUOUS
62
7
370
-1
100
AcDbPolyline
90
76
70
0
43
0
10
2.6405671626
20
23.3247665237
10
2.6419542346
20
23.3334062379
10
2.6427171545
20
23.3379539297
10
2.6435292808
20
23.3426512614
10
2.644391853
20
23.3475000425
10
2.6453211592
20
23.3525043806
10
2.646314002
20
23.3576582834
10
2.6473735789
20
23.3629677432
10
2.6485257698
20
23.3684548441
10
2.6497660859
20
23.3741182839
10
2.6510990161
20
23.3799593649
10
2.6525639071
20
23.386004078
10
2.6541533475
20
23.392252927
10
2.6558747487
20
23.398705408
10
2.6577896917
20
23.4053860008
10
2.6598866305
20
23.4123021476
10
2.6621771111
20
23.419446406
10
2.6647573527
20
23.4268209286
10
2.667609128
20
23.4344367352
10
2.6707506643
20
23.442282806
10
2.6743328631
20
23.4503282331
10
2.6783592676
20
23.4586450365
10
2.6828263347
20
23.4671611963
10
2.6878743364
20
23.4756297444
10
2.6935542902
20
23.4841290599
10
2.6998151786
20
23.4925807637
10
2.7066442222
20
23.5005027509
10
2.7140763518
20
23.5078593884
10
2.7220766365
20
23.5146863092
10
2.7305275044
20
23.520608308
10
2.7394567071
20
23.5255421684
10
2.7488364929
20
23.5295711068
10
2.758466035
20
23.5325695663
10
2.7683523073
20
23.5344841421
10
2.7784883359
20
23.535368239
10
2.788652372
20
23.5352565153
10
2.7988399381
20
23.5340849034
10
2.8090555119
20
23.5319174709
10
2.8190907771
20
23.5289810785
10
2.8289367056
20
23.5252410118
10
2.8386023255
20
23.5207319852
10
2.8479064053
20
23.5157850025
10
2.8568354046
20
23.5103976796
10
2.8654028637
20
23.5045724005
10
2.873468172
20
23.4986473216
10
2.8809782078
20
23.492662525
10
2.8879860928
20
23.4865779286
10
2.8945105814
20
23.4806114418
10
2.9005062363
20
23.4748295189
10
2.9060184949
20
23.4691657056
10
2.9112024243
20
23.4636385481
10
2.9160712905
20
23.4582657935
10
2.9206118274
20
23.4530296946
10
2.9249393034
20
23.4478955567
10
2.9290742015
20
23.4428561227
10
2.9329960388
20
23.4379186497
10
2.9367586349
20
23.4330702129
10
2.9403738741
20
23.4283018897
10
2.9438298723
20
23.4236226027
10
2.9471447962
20
23.4190461956
10
2.9503198973
20
23.4145740452
10
2.9533539243
20
23.4102047747
10
2.9562612894
20
23.405948097
10
2.959041899
20
23.401806837
10
2.9616958468
20
23.3977781699
10
2.9642378265
20
23.3938633338
10
2.9666673103
20
23.3900660743
10
2.9689848259
20
23.3863826459
10
2.9712066501
20
23.3828030508
10
2.9733325507
20
23.3793284477
10
2.9753627598
20
23.3759576779
10
2.9773142504
20
23.3726772674
10
2.979187795
20
23.3694866184
10
2.980982621
20
23.3663863286
10
2.982713384
20
23.3633647175
10
2.9843817138
20
23.3604199017
0
LINE
5
6D
100
AcDbEntity
8
0
6
CONTINUOUS
62
7
370
-1
100
AcDbLine
10
2.6324231115
20
23.2710788936
11
2.6331499249
21
23.2755099311
0
LWPOLYLINE
5
6E
100
AcDbEntity
8
0
6
CONTINUOUS
62
7
370
-1
100
AcDbPolyline
90
3
70
0
43
0
10
2.6312943118
20
23.2646250942
10
2.6316747573
20
23.2667463964
10
2.6324231115
20
23.2710788936
0
LWPOLYLINE
5
6F
100
AcDbEntity
8
0
6
CONTINUOUS
62
7
370
-1
100
AcDbPolyline
90
19
70
0
43
0
10
2.1036445416
20
24.4355356102
10
2.0759427545
20
24.4725030403
10
2.050808143
20
24.5096732379
10
2.0282407072
20
24.5470462031
10
2.0082862313
20
24.5847353784
10
1.9908989311
20
24.6226273213
10
1.9759414536
20
24.6603817038
10
1.963428148
20
24.6980059302
10
1.953344665
20
24.7354925962
10
1.9455106043
20
24.7724791609
10
1.9399317426
20
24.8089800741
10
1.9366023031
20
24.8449808859
10
1.9353245549
20
24.8800757061
10
1.9361380532
20
24.9142309829
10
1.9390032427
20
24.9474802681
10
1.9436037262
20
24.9795183256
10
1.949834038
20
25.0102434103
10
1.9577996437
20
25.0397572673
10
1.9675005435
20
25.0680598967
0
LINE
5
70
100
AcDbEntity
8
0
6
CONTINUOUS
62
7
370
-1
100
AcDbLine
10
2.9843817138
20
23.3604199017
11
2.9875359496
21
23.3547602754
0
LINE
5
71
100
AcDbEntity
8
0
6
CONTINUOUS
62
7
370
-1
100
AcDbLine
10
2.9875359496
20
23.3547602754
11
2.9904763406
21
23.3493866137
0
LINE
5
72
100
AcDbEntity
8
0
6
CONTINUOUS
62
7
370
-1
100
AcDbLine
10
2.9904763406
20
23.3493866137
11
2.9932132486
21
23.3443076222
0
LINE
5
73
100
AcDbEntity
8
0
6
CONTINUOUS
62
7
370
-1
100
AcDbLine
10
2.9932132486
20
23.3443076222
11
2.9969621561
21
23.3372404876
0
LINE
5
74
100
AcDbEntity
8
0
6
CONTINUOUS
62
7
370
-1
100
AcDbLine
10
2.9969621561
20
23.3372404876
11
3.0025078481
21
23.3266270941
0
LINE
5
75
100
AcDbEntity
8
0
6
CONTINUOUS
62
7
370
-1
100
AcDbLine
10
3.0025078481
20
23.3266270941
11
3.005664638
21
23.3205352977
0
LWPOLYLINE
5
76
100
AcDbEntity
8
0
6
CONTINUOUS
62
7
370
-1
100
AcDbPolyline
90
25
70
0
43
0
10
3.005664638
20
23.3205352977
10
3.0392288109
20
23.2551752662
10
3.0708950081
20
23.1912432172
10
3.1006632296
20
23.1287391508
10
3.1284948783
20
23.067910184
10
3.1544285513
20
23.0085091999
10
3.1785800398
20
22.9497948471
10
3.2008714505
20
22.8918504094
10
3.2213806766
20
22.834592603
10
3.2404571888
20
22.7770302256
10
3.2580931082
20
22.7191733951
10
3.2742963136
20
22.6610119934
10
3.2894399129
20
22.6015244647
10
3.3036077206
20
22.5406888901
10
3.3167159221
20
22.4785271884
10
3.3288861813
20
22.4140835596
10
3.3401909084
20
22.3472034091
10
3.3505576932
20
22.2780413315
10
3.3598909679
20
22.2061053111
10
3.368199152
20
22.1312971899
10
3.375473826
20
22.053715126
10
3.3815941643
20
21.9731615775
10
3.3865198914
20
21.8895706974
10
3.3902912828
20
21.8030083328
10
3.3931746034
20
21.7053208256
0
LWPOLYLINE
5
77
100
AcDbEntity
8
0
6
CONTINUOUS
62
7
370
-1
100
AcDbPolyline
90
30
70
0
43
0
10
3.3931746034
20
21.7053208256
10
3.3932631232
20
21.6969356894
10
3.3931738977
20
21.6883190751
10
3.3929640968
20
21.6794552741
10
3.3925765506
20
21.6703599949
10
3.3918397496
20
21.6610803636
10
3.3907504404
20
21.6516033039
10
3.3893118763
20
21.641941892
10
3.3873623081
20
21.6321824826
10
3.3848705888
20
21.6223000029
10
3.3818678654
20
21.6123195256
10
3.3782858289
20
21.6024026231
10
3.3741117835
20
21.5925487162
10
3.3693584252
20
21.582758384
10
3.3639955328
20
21.5731949361
10
3.3579819897
20
21.5638599548
10
3.3513589126
20
21.5547518577
10
3.3442194308
20
21.546029208
10
3.3365077355
20
21.5376924938
10
3.3282796353
20
21.5297412271
10
3.3197956854
20
21.5223325067
10
3.311071285
20
21.5155379557
10
3.3020910347
20
21.5092859511
10
3.2930692917
20
21.503518723
10
3.2840098112
20
21.4982634963
10
3.274908838
20
21.4934930462
10
3.2659694634
20
21.4890679281
10
3.2572593846
20
21.4849416605
10
3.2487109043
20
21.4811607249
10
3.2403240227
20
21.4777251214
0
LWPOLYLINE
5
78
100
AcDbEntity
8
0
6
CONTINUOUS
62
7
370
-1
100
AcDbPolyline
90
25
70
0
43
0
10
3.6778773805
20
21.7721729435
10
3.6920678973
20
21.9564632971
10
3.6992659395
20
22.1160362789
10
3.7010573721
20
22.2716483199
10
3.6977265715
20
22.4227133655
10
3.6889891612
20
22.5698174703
10
3.6739920116
20
22.714718797
10
3.6523725637
20
22.857441319
10
3.6244933764
20
22.9979610629
10
3.5905889968
20
23.1379642721
10
3.5497467587
20
23.2775174604
10
3.5028793283
20
23.4165541139
10
3.4529592509
20
23.5565609347
10
3.399708558
20
23.6976285958
10
3.3434052182
20
23.8396664242
10
3.2878556827
20
23.9838891029
10
3.2337552212
20
24.1301652347
10
3.1804085641
20
24.2786262169
10
3.1295363534
20
24.4308809234
10
3.0815961548
20
24.5869852741
10
3.0361304026
20
24.7468833492
10
2.9934870424
20
24.9120162634
10
2.953782056
20
25.0828643882
10
2.9168994616
20
25.2589473521
10
2.8828392593
20
25.4402651551
0
LWPOLYLINE
5
79
100
AcDbEntity
8
0
6
CONTINUOUS
62
7
370
-1
100
AcDbPolyline
90
13
70
0
43
0
10
3.2403240227
20
21.4777251214
10
3.1631980757
20
21.4466456476
10
3.0853572891
20
21.4182394135
10
3.006801663
20
21.3925064189
10
2.9275357357
20
21.3694451568
10
2.8475549688
20
21.3490571342
10
2.7668457474
20
21.3313468726
10
2.6854009864
20
21.3163007785
10
2.6032277709
20
21.3039324453
10
2.5203337418
20
21.2942871751
10
2.436721446
20
21.2873800685
10
2.3523883366
20
21.2831960248
10
2.2673344136
20
21.2817350441
0
LWPOLYLINE
5
7A
100
AcDbEntity
8
0
6
CONTINUOUS
62
7
370
-1
100
AcDbPolyline
90
24
70
0
43
0
10
3.3143013189
20
21.2919261357
10
3.3408770574
20
21.3027746836
10
3.3674827627
20
21.3150008725
10
3.3941184348
20
21.3286047024
10
3.4211370081
20
21.3435453119
10
3.4481855482
20
21.3598635624
10
3.4742052521
20
21.3776820384
10
3.4990956918
20
21.397218236
10
3.5229572953
20
21.418254659
10
3.5450325439
20
21.4402614036
10
3.5650926835
20
21.4632308266
10
3.5833664682
20
21.4871705711
10
3.5997826414
20
21.511573662
10
3.6142531311
20
21.5364756218
10
3.6268660092
20
21.5618409279
10
3.6378142361
20
21.5870560384
10
3.6470155764
20
21.6120922263
10
3.6545522654
20
21.6369782186
10
3.660863969
20
21.6611866536
10
3.6658907827
20
21.684475984
10
3.669692611
20
21.7070877572
10
3.6728888334
20
21.7292192547
10
3.6756859099
20
21.750936237
10
3.6778773805
20
21.7721729435
0
LWPOLYLINE
5
7B
100
AcDbEntity
8
0
6
CONTINUOUS
62
7
370
-1
100
AcDbPolyline
90
14
70
0
43
0
10
1.6048865818
20
30.0061456159
10
1.5722472199
20
29.9920527649
10
1.5407056926
20
29.9733862015
10
1.5102619999
20
29.9501459256
10
1.4808829928
20
29.9225423851
10
1.4526018202
20
29.8903651321
10
1.4255179294
20
29.8529828233
10
1.3996667096
20
29.8101497484
10
1.3750127716
20
29.7621116176
10
1.3515493948
20
29.7089742178
10
1.3294454602
20
29.6504093264
10
1.3085320869
20
29.5867451661
10
1.2882959107
20
29.5190721918
10
1.2689882456
20
29.4470983216
0
LWPOLYLINE
5
7C
100
AcDbEntity
8
0
6
CONTINUOUS
62
7
370
-1
100
AcDbPolyline
90
55
70
0
43
0
10
1.7298865818
20
26.9459250413
10
1.7896765095
20
26.9483871435
10
1.8489196659
20
26.956557367
10
1.9076160508
20
26.9704357117
10
1.9656714905
20
26.9896866736
10
2.0231801588
20
27.0146457568
10
2.0804245772
20
27.0463194737
10
2.1378142699
20
27.0848173856
10
2.1949397127
20
27.1300299311
10
2.2508548551
20
27.1826349384
10
2.3057241108
20
27.2428797713
10
2.3593830661
20
27.3105170659
10
2.4103924301
20
27.3854825585
10
2.4591855361
20
27.4691485457
10
2.5053290508
20
27.5601427308
10
2.5460836832
20
27.6542839611
10
2.5810554472
20
27.7529260568
10
2.6106383289
20
27.8547151977
10
2.6332749951
20
27.95140877
10
2.6480265873
20
28.0409642665
10
2.6558319639
20
28.1254241945
10
2.6579503679
20
28.2026734626
10
2.6544426149
20
28.2708592811
10
2.6452478892
20
28.3318344397
10
2.6314429869
20
28.3890422155
10
2.6130576742
20
28.4424698502
10
2.590062185
20
28.4921301021
10
2.5634440168
20
28.5415045232
10
2.5325217279
20
28.5905927272
10
2.4979767601
20
28.6393951005
10
2.4628409366
20
28.6913943532
10
2.4268532583
20
28.746977936
10
2.3902747244
20
28.8057583984
10
2.3569201554
20
28.8700560991
10
2.3284103106
20
28.9418548636
10
2.3031244308
20
29.0191708664
10
2.2800150584
20
29.0983729899
10
2.259308908
20
29.1799748829
10
2.2407792649
20
29.2634628966
10
2.2226985276
20
29.3436649659
10
2.2049200759
20
29.4192391848
10
2.1875905301
20
29.4915274594
10
2.1694221496
20
29.5593834425
10
2.1501500028
20
29.6225645511
10
2.1300390214
20
29.6813133683
10
2.1085962604
20
29.7352112967
10
2.0856446609
20
29.784099508
10
2.0613612817
20
29.8281368305
10
2.0357843549
20
29.8673811518
10
2.0089395196
20
29.9016289677
10
1.9808011366
20
29.9310837824
10
1.9513305199
20
29.956413996
10
1.9205147742
20
29.9778424087
10
1.8883667949
20
29.9951462203
10
1.8548865818
20
30.0083254308
0
LWPOLYLINE
5
7D
100
AcDbEntity
8
0
6
CONTINUOUS
62
7
370
-1
100
AcDbPolyline
90
39
70
0
43
0
10
1.2311372013
20
29.2930908401
10
1.1913848013
20
29.1296672464
10
1.1686675152
20
29.048730471
10
1.1426443846
20
28.9688559908
10
1.1140752221
20
28.8907775887
10
1.0832835426
20
28.8205348043
10
1.0492157622
20
28.7615407503
10
1.0129254649
20
28.7103823139
10
0.9778969166
20
28.6628596974
10
0.9445263528
20
28.6189865896
10
0.9124175382
20
28.5787493016
10
0.8838660322
20
28.5379069684
10
0.8594298522
20
28.496381014
10
0.8385509808
20
28.4542500143
10
0.821850926
20
28.4075088321
10
0.8091622777
20
28.3559056142
10
0.8006524458
20
28.2996922137
10
0.7974451686
20
28.2356190534
10
0.7993278069
20
28.1621078288
10
0.8065129997
20
28.0807368444
10
0.8207624021
20
27.9929914355
10
0.8430534477
20
27.8966010286
10
0.8724087028
20
27.7938361973
10
0.9076575218
20
27.6929939973
10
0.949465807
20
27.5949874756
10
0.997167656
20
27.4989035852
10
1.0475947162
20
27.4103002405
10
1.1002583717
20
27.3308997992
10
1.1556472384
20
27.2589799036
10
1.212058811
20
27.1949313947
10
1.2693130231
20
27.1390969373
10
1.3275899412
20
27.0911338667
10
1.3857272599
20
27.0504050295
10
1.4433156329
20
27.0170962473
10
1.5007644066
20
26.9910216987
10
1.5581393149
20
26.9709867655
10
1.6154622692
20
26.9565932419
10
1.6727113582
20
26.9482393338
10
1.7298865818
20
26.9459250413
0
LINE
5
7E
100
AcDbEntity
8
0
6
CONTINUOUS
62
7
370
-1
100
AcDbLine
10
1.2689882456
20
29.4470983216
11
1.2311372013
21
29.2930908401
0
LINE
5
7F
100
AcDbEntity
8
0
6
CONTINUOUS
62
7
370
-1
100
AcDbLine
10
1.6048865818
20
30.0061456159
11
1.6048865818
21
29.4583254308
0
LINE
5
80
100
AcDbEntity
8
0
6
CONTINUOUS
62
7
370
-1
100
AcDbLine
10
1.8548865818
20
29.4583254308
11
1.8548865818
21
30.0083254308
0
LINE
5
81
100
AcDbEntity
8
0
6
CONTINUOUS
62
7
370
-1
100
AcDbLine
10
1.6048865818
20
29.4583254308
11
1.8548865818
21
29.4583254308
0
CIRCLE
5
82
100
AcDbEntity
8
0
6
CONTINUOUS
62
7
370
-1
100
AcDbCircle
10
5.4328822808
20
32.3217407267
40
1.34133861
0
ARC
5
83
100
AcDbEntity
8
0
6
CONTINUOUS
62
7
370
-1
100
AcDbCircle
10
5.4328822808
20
32.3217407267
40
1.04133861
100
AcDbArc
50
359.633761855
51
31.5265315196
0
ARC
5
84
100
AcDbEntity
8
0
6
CONTINUOUS
62
7
370
-1
100
AcDbCircle
10
5.4328822808
20
32.3217407267
40
1.04133861
100
AcDbArc
50
269.633761807
51
301.526334763
0
ARC
5
85
100
AcDbEntity
8
0
6
CONTINUOUS
62
7
370
-1
100
AcDbCircle
10
5.4328822808
20
32.3217407267
40
1.04133861
100
AcDbArc
50
179.63368168
51
211.526507193
0
ARC
5
86
100
AcDbEntity
8
0
6
CONTINUOUS
62
7
370
-1
100
AcDbCircle
10
5.4328822808
20
32.3217407267
40
1.04133861
100
AcDbArc
50
89.6340094153
51
121.526529691
0
ARC
5
87
100
AcDbEntity
8
0
6
CONTINUOUS
62
7
370
-1
100
AcDbCircle
10
6.107417827
20
32.735526411
40
0.25
100
AcDbArc
50
31.5265315196
51
157.568250743
0
ARC
5
88
100
AcDbEntity
8
0
6
CONTINUOUS
62
7
370
-1
100
AcDbCircle
10
6.2242047244
20
32.3166824761
40
0.25
100
AcDbArc
50
265.216020335
51
359.633761855
0
ARC
5
89
100
AcDbEntity
8
0
6
CONTINUOUS
62
7
370
-1
100
AcDbCircle
10
5.8466656487
20
31.6472037596
40
0.25
100
AcDbArc
50
301.526334763
51
67.55470313
0
ARC
5
8A
100
AcDbEntity
8
0
6
CONTINUOUS
62
7
370
-1
100
AcDbCircle
10
5.4278240295
20
31.5304182831
40
0.25
100
AcDbArc
50
175.216019979
51
269.633761807
0
ARC
5
8B
100
AcDbEntity
8
0
6
CONTINUOUS
62
7
370
-1
100
AcDbCircle
10
4.7583465589
20
31.9079553288
40
0.25
100
AcDbArc
50
211.526507193
51
337.569066507
0
ARC
5
8C
100
AcDbEntity
8
0
6
CONTINUOUS
62
7
370
-1
100
AcDbCircle
10
4.6415598443
20
32.3268000846
40
0.25
100
AcDbArc
50
85.2099607315
51
179.63368168
0
ARC
5
8D
100
AcDbEntity
8
0
6
CONTINUOUS
62
7
370
-1
100
AcDbCircle
10
5.019096618
20
32.9962762862
40
0.25
100
AcDbArc
50
121.526529691
51
247.56748984
0
ARC
5
8E
100
AcDbEntity
8
0
6
CONTINUOUS
62
7
370
-1
100
AcDbCircle
10
5.4379371123
20
33.1130631922
40
0.25
100
AcDbArc
50
355.221551982
51
89.6340094153
0
CIRCLE
5
8F
100
AcDbEntity
8
0
6
CONTINUOUS
62
7
370
-1
100
AcDbCircle
10
5.4328822808
20
32.3217407267
40
0.078125
0
CIRCLE
5
90
100
AcDbEntity
8
0
6
CONTINUOUS
62
7
370
-1
100
AcDbCircle
10
4.9650758327
20
31.2328917286
40
0.03125
0
CIRCLE
5
91
100
AcDbEntity
8
0
6
CONTINUOUS
62
7
370
-1
100
AcDbCircle
10
4.3440332827
20
32.7895471748
40
0.03125
0
CIRCLE
5
92
100
AcDbEntity
8
0
6
CONTINUOUS
62
7
370
-1
100
AcDbCircle
10
5.9006887289
20
33.4105897248
40
0.03125
0
CIRCLE
5
93
100
AcDbEntity
8
0
6
CONTINUOUS
62
7
370
-1
100
AcDbCircle
10
6.5217312789
20
31.8539342787
40
0.03125
0
ARC
5
94
100
AcDbEntity
8
0
6
CONTINUOUS
62
7
370
-1
100
AcDbCircle
10
1.2673344138
20
23.7680887057
40
1.07
100
AcDbArc
50
2.417e-07
51
38.5928564915
0
ARC
5
95
100
AcDbEntity
8
0
6
CONTINUOUS
62
7
370
-1
100
AcDbCircle
10
1.2673344138
20
23.7680887057
40
0.93
100
AcDbArc
50
2.442e-07
51
38.5928564915
0
ARC
5
96
100
AcDbEntity
8
0
6
CONTINUOUS
62
7
370
-1
100
AcDbCircle
10
2.2673344136
20
25.3317350441
40
0.625
100
AcDbArc
50
10
51
170
0
ARC
5
97
100
AcDbEntity
8
0
6
CONTINUOUS
62
7
370
-1
100
AcDbCircle
10
2.2673344136
20
23.331207318
40
0.37
100
AcDbArc
50
190.366961416
51
349.633038584
0
ARC
5
98
100
AcDbEntity
8
0
6
CONTINUOUS
62
7
370
-1
100
AcDbCircle
10
2.2673344136
20
23.331207318
40
0.07
100
AcDbArc
50
180
51
360
0
ARC
5
99
100
AcDbEntity
8
0
6
CONTINUOUS
62
7
370
-1
100
AcDbCircle
10
1.9454866369
20
25.2096239738
40
0.07
100
AcDbArc
50
339.590153975
51
159.590153975
0
CIRCLE
5
9A
100
AcDbEntity
8
0
6
CONTINUOUS
62
7
370
-1
100
AcDbCircle
10
2.2673344136
20
25.3317350441
40
0.0390625
0
ENDSEC
0
SECTION
2
OBJECTS
0
DICTIONARY
5
C
330
0
100
AcDbDictionary
281
1
3
ACAD_GROUP
350
D
0
DICTIONARY
5
D
330
C
100
AcDbDictionary
281
1
0
ENDSEC
0
EOF
