999
dxfrw 0.5.10
0
SECTION
2
HEADER
9
$ACADVER
1
AC1021
9
$HANDSEED
5
20000
9
$DWGCODEPAGE
3
ANSI_1252
9
$INSBASE
10
0
20
0
30
0
9
$EXTMIN
10
0.9619319496
20
7.50388166589
30
0
9
$EXTMAX
10
41.5835669061
20
33.7449742043
30
0
9
$LIMMIN
10
0
20
0
9
$LIMMAX
10
44
20
34
9
$ORTHOMODE
70
0
9
$LTSCALE
40
2.42
9
$TEXTSTYLE
7
STANDARD
9
$CLAYER
8
0
9
$DIMASZ
40
0.1875
9
$DIMLFAC
40
1
9
$DIMSCALE
40
1
9
$DIMEXO
40
0.0625
9
$DIMEXE
40
0.125
9
$DIMTXT
40
0.15625
9
$DIMTSZ
40
0
9
$DIMAUNIT
70
0
9
$DIMADEC
70
0
9
$DIMLUNIT
70
2
9
$DIMSTYLE
2
Standard
9
$DIMGAP
40
0.09
9
$DIMTIH
70
0
9
$LUNITS
70
2
9
$LUPREC
70
4
9
$AUNITS
70
0
9
$AUPREC
70
2
9
$SPLINESEGS
70
8
9
$GRIDMODE
70
0
9
$SNAPSTYLE
70
0
9
$VIEWCTR
10
22
20
17
9
$PINSBASE
10
0
20
0
30
0
9
$PLIMMIN
10
0
20
0
9
$PLIMMAX
10
0.325500651001
20
0.460350920702
9
$INSUNITS
70
1
9
$PSVPSCALE
40
1
0
ENDSEC
0
SECTION
2
CLASSES
0
ENDSEC
0
SECTION
2
TABLES
0
TABLE
2
VPORT
5
8
330
0
100
AcDbSymbolTable
70
1
0
VPORT
5
31
330
2
100
AcDbSymbolTableRecord
100
AcDbViewportTableRecord
2
*ACTIVE
70
0
10
0
20
0
11
1
21
1
12
23.2385321101
22
19.0587155963
13
0
23
0
14
10
24
10
15
10
25
10
16
0
26
0
36
1
17
0
27
0
37
0
40
27.2
41
1.80504587156
42
50
43
0
44
0
50
0
51
0
71
0
72
100
73
1
74
3
75
0
76
0
77
0
78
0
281
0
65
1
110
0
120
0
130
0
111
1
121
0
131
0
112
0
122
1
132
0
79
0
146
0
348
10020
60
7
61
5
292
1
282
1
141
0
142
0
63
250
421
3358443
0
ENDTAB
0
TABLE
2
LTYPE
5
5
330
0
100
AcDbSymbolTable
70
4
0
LTYPE
5
14
330
5
100
AcDbSymbolTableRecord
100
AcDbLinetypeTableRecord
2
ByBlock
70
0
3

72
65
73
0
40
0
0
LTYPE
5
15
330
5
100
AcDbSymbolTableRecord
100
AcDbLinetypeTableRecord
2
ByLayer
70
0
3

72
65
73
0
40
0
0
LTYPE
5
16
330
5
100
AcDbSymbolTableRecord
100
AcDbLinetypeTableRecord
2
Continuous
70
0
3
Solid line
72
65
73
0
40
0
0
LTYPE
5
32
330
5
100
AcDbSymbolTableRecord
100
AcDbLinetypeTableRecord
2
DOT
70
0
3
Dot . . . . . . . . . . . . . . . . . . . . . .
72
65
73
2
40
6.35
49
0
74
0
49
-6.35
74
0
0
LTYPE
5
33
330
5
100
AcDbSymbolTableRecord
100
AcDbLinetypeTableRecord
2
DOT2
70
0
3
Dot (.5x) .....................................
72
65
73
2
40
3.175
49
0
74
0
49
-3.175
74
0
0
LTYPE
5
34
330
5
100
AcDbSymbolTableRecord
100
AcDbLinetypeTableRecord
2
DOTX2
70
0
3
Dot (2x) .  .  .  .  .  .  .  .  .  .  .  .  .
72
65
73
2
40
12.7
49
0
74
0
49
-12.7
74
0
0
LTYPE
5
35
330
5
100
AcDbSymbolTableRecord
100
AcDbLinetypeTableRecord
2
DASHED
70
0
3
Dot . . . . . . . . . . . . . . . . . . . . . .
72
65
73
2
40
19.05
49
12.7
74
0
49
-6.35
74
0
0
LTYPE
5
36
330
5
100
AcDbSymbolTableRecord
100
AcDbLinetypeTableRecord
2
DASHED2
70
0
3
Dashed (.5x) _ _ _ _ _ _ _ _ _ _ _ _ _ _ _ _ _
72
65
73
2
40
9.525
49
6.35
74
0
49
-3.175
74
0
0
LTYPE
5
37
330
5
100
AcDbSymbolTableRecord
100
AcDbLinetypeTableRecord
2
DASHEDX2
70
0
3
Dashed (2x) ____  ____  ____  ____  ____  ___
72
65
73
2
40
38.1
49
25.4
74
0
49
-12.7
74
0
0
LTYPE
5
38
330
5
100
AcDbSymbolTableRecord
100
AcDbLinetypeTableRecord
2
DASHDOT
70
0
3
Dash dot __ . __ . __ . __ . __ . __ . __ . __
72
65
73
4
40
25.4
49
12.7
74
0
49
-6.35
74
0
49
0
74
0
49
-6.35
74
0
0
LTYPE
5
39
330
5
100
AcDbSymbolTableRecord
100
AcDbLinetypeTableRecord
2
DASHDOT2
70
0
3
Dash dot (.5x) _._._._._._._._._._._._._._._.
72
65
73
4
40
12.7
49
6.35
74
0
49
-3.175
74
0
49
0
74
0
49
-3.175
74
0
0
LTYPE
5
3A
330
5
100
AcDbSymbolTableRecord
100
AcDbLinetypeTableRecord
2
DASHDOTX2
70
0
3
Dash dot (2x) ____  .  ____  .  ____  .  ___
72
65
73
4
40
50.8
49
25.4
74
0
49
-12.7
74
0
49
0
74
0
49
-12.7
74
0
0
LTYPE
5
3B
330
5
100
AcDbSymbolTableRecord
100
AcDbLinetypeTableRecord
2
DIVIDE
70
0
3
Divide ____ . . ____ . . ____ . . ____ . . ____
72
65
73
6
40
31.75
49
12.7
74
0
49
-6.35
74
0
49
0
74
0
49
-6.35
74
0
49
0
74
0
49
-6.35
74
0
0
LTYPE
5
3C
330
5
100
AcDbSymbolTableRecord
100
AcDbLinetypeTableRecord
2
DIVIDE2
70
0
3
Divide (.5x) __..__..__..__..__..__..__..__.._
72
65
73
6
40
15.875
49
6.35
74
0
49
-3.175
74
0
49
0
74
0
49
-3.175
74
0
49
0
74
0
49
-3.175
74
0
0
LTYPE
5
3D
330
5
100
AcDbSymbolTableRecord
100
AcDbLinetypeTableRecord
2
DIVIDEX2
70
0
3
Divide (2x) ________  .  .  ________  .  .  _
72
65
73
6
40
63.5
49
25.4
74
0
49
-12.7
74
0
49
0
74
0
49
-12.7
74
0
49
0
74
0
49
-12.7
74
0
0
LTYPE
5
3E
330
5
100
AcDbSymbolTableRecord
100
AcDbLinetypeTableRecord
2
BORDER
70
0
3
Border __ __ . __ __ . __ __ . __ __ . __ __ .
72
65
73
6
40
44.45
49
12.7
74
0
49
-6.35
74
0
49
12.7
74
0
49
-6.35
74
0
49
0
74
0
49
-6.35
74
0
0
LTYPE
5
3F
330
5
100
AcDbSymbolTableRecord
100
AcDbLinetypeTableRecord
2
BORDER2
70
0
3
Border (.5x) __.__.__.__.__.__.__.__.__.__.__.
72
65
73
6
40
22.225
49
6.35
74
0
49
-3.175
74
0
49
6.35
74
0
49
-3.175
74
0
49
0
74
0
49
-3.175
74
0
0
LTYPE
5
40
330
5
100
AcDbSymbolTableRecord
100
AcDbLinetypeTableRecord
2
BORDERX2
70
0
3
Border (2x) ____  ____  .  ____  ____  .  ___
72
65
73
6
40
88.9
49
25.4
74
0
49
-12.7
74
0
49
25.4
74
0
49
-12.7
74
0
49
0
74
0
49
-12.7
74
0
0
LTYPE
5
41
330
5
100
AcDbSymbolTableRecord
100
AcDbLinetypeTableRecord
2
CENTER
70
0
3
Center ____ _ ____ _ ____ _ ____ _ ____ _ ____
72
65
73
4
40
50.8
49
31.75
74
0
49
-6.35
74
0
49
6.35
74
0
49
-6.35
74
0
0
LTYPE
5
42
330
5
100
AcDbSymbolTableRecord
100
AcDbLinetypeTableRecord
2
CENTER2
70
0
3
Center (.5x) ___ _ ___ _ ___ _ ___ _ ___ _ ___
72
65
73
4
40
28.575
49
19.05
74
0
49
-3.175
74
0
49
3.175
74
0
49
-3.175
74
0
0
LTYPE
5
43
330
5
100
AcDbSymbolTableRecord
100
AcDbLinetypeTableRecord
2
CENTERX2
70
0
3
Center (2x) ________  __  ________  __  _____
72
65
73
4
40
101.6
49
63.5
74
0
49
-12.7
74
0
49
12.7
74
0
49
-12.7
74
0
0
ENDTAB
0
TABLE
2
LAYER
5
2
330
0
100
AcDbSymbolTable
70
1
0
LAYER
5
10
330
2
100
AcDbSymbolTableRecord
100
AcDbLayerTableRecord
2
0
70
0
62
7
6
CONTINUOUS
370
-3
390
F
0
ENDTAB
0
TABLE
2
STYLE
5
3
330
0
100
AcDbSymbolTable
70
3
0
STYLE
5
44
330
2
100
AcDbSymbolTableRecord
100
AcDbTextStyleTableRecord
2
standard
70
0
40
0
41
1
50
0
71
0
42
1
3
standard
4

0
ENDTAB
0
TABLE
2
VIEW
5
6
330
0
100
AcDbSymbolTable
70
0
0
ENDTAB
0
TABLE
2
UCS
5
7
330
0
100
AcDbSymbolTable
70
0
0
ENDTAB
0
TABLE
2
APPID
5
9
330
0
100
AcDbSymbolTable
70
1
0
APPID
5
12
330
9
100
AcDbSymbolTableRecord
100
AcDbRegAppTableRecord
2
ACAD
70
0
0
ENDTAB
0
TABLE
2
DIMSTYLE
5
A
330
0
100
AcDbSymbolTable
70
1
100
AcDbDimStyleTable
71
1
0
DIMSTYLE
105
45
330
A
100
AcDbSymbolTableRecord
100
AcDbDimStyleTableRecord
2
Standard
70
0
40
1
41
0.1875
42
0.0625
43
0.38
44
0.125
45
0
46
0
47
0
48
0
140
0.15625
141
0.09
142
0
143
25.4
144
1
145
0
146
1
147
0.09
148
0
71
0
72
0
73
0
74
1
75
0
76
0
77
0
78
0
79
0
170
0
171
2
172
0
173
0
174
0
175
0
176
0
177
0
178
0
179
0
271
4
272
4
273
2
274
2
275
0
276
0
277
2
278
46
279
0
280
0
281
0
282
0
283
1
284
0
285
0
286
0
288
0
289
3
340
Standard
341

371
-2
372
-2
0
ENDTAB
0
TABLE
2
BLOCK_RECORD
5
1
330
0
100
AcDbSymbolTable
70
2
0
BLOCK_RECORD
5
1F
330
1
100
AcDbSymbolTableRecord
100
AcDbBlockTableRecord
2
*Model_Space
70
0
280
1
281
0
0
BLOCK_RECORD
5
1E
330
1
100
AcDbSymbolTableRecord
100
AcDbBlockTableRecord
2
*Paper_Space
70
0
280
1
281
0
0
ENDTAB
0
ENDSEC
0
SECTION
2
BLOCKS
0
BLOCK
5
20
330
1F
100
AcDbEntity
8
0
100
AcDbBlockBegin
2
*Model_Space
70
0
10
0
20
0
30
0
3
*Model_Space
1

0
ENDBLK
5
21
330
1F
100
AcDbEntity
8
0
100
AcDbBlockEnd
0
BLOCK
5
1C
330
1B
100
AcDbEntity
8
0
100
AcDbBlockBegin
2
*Paper_Space
70
0
10
0
20
0
30
0
3
*Paper_Space
1

0
ENDBLK
5
1D
330
1F
100
AcDbEntity
8
0
100
AcDbBlockEnd
0
ENDSEC
0
SECTION
2
ENTITIES
0
MTEXT
5
46
100
AcDbEntity
8
0
6
CONTINUOUS
62
2
370
-1
100
AcDbMText
10
7.2451430483
20
30.702505
30
0
40
0.15625
41
2.09201385576
71
1
72
1
1
Frame Front Spacer
7
standard
210
0
220
0
230
1
50
0
73
1
44
0.9
0
MTEXT
5
47
100
AcDbEntity
8
0
6
CONTINUOUS
62
2
370
-1
100
AcDbMText
10
13.7158713755
20
29.8394899814
30
0
40
0.15625
41
0.933159722222
71
1
72
1
1
Gear Lift
7
standard
210
0
220
0
230
1
50
0
73
1
44
0.9
0
MTEXT
5
48
100
AcDbEntity
8
0
6
CONTINUOUS
62
2
370
-1
100
AcDbMText
10
17.2555466505
20
31.7295241608
30
0
40
0.15625
41
2.92100689396
71
1
72
1
1
Limiter Spacer Large (back)
7
standard
210
0
220
0
230
1
50
0
73
1
44
0.9
0
LWPOLYLINE
5
49
100
AcDbEntity
8
0
6
CONTINUOUS
62
7
370
-1
100
AcDbPolyline
90
22
70
0
43
0
10
5.6434338193
20
32.3153377952
10
5.6492831114
20
32.3021713978
10
5.6558094239
20
32.2894853344
10
5.6630127569
20
32.2772796049
10
5.6707927333
20
32.2653777381
10
5.6792497301
20
32.2539562052
10
5.6886848786
20
32.2435444202
10
5.699245316
20
32.2341035363
10
5.710783905
20
32.2256724003
10
5.7231603652
20
32.2188969662
10
5.7365749978
20
32.2138847419
10
5.7508275017
20
32.2105282195
10
5.7651766921
20
32.20915083
10
5.7795667822
20
32.2100002672
10
5.7940535589
20
32.2128288374
10
5.8080631987
20
32.2172168898
10
5.8214306248
20
32.2233018606
10
5.834320914
20
32.2309463138
10
5.8466554728
20
32.2393182903
10
5.8584081035
20
32.2481404704
10
5.8696050039
20
32.2576901737
10
5.880246174
20
32.2679674004
0
LWPOLYLINE
5
4A
100
AcDbEntity
8
0
6
CONTINUOUS
62
7
370
-1
100
AcDbPolyline
90
16
70
0
43
0
10
5.6055484711
20
32.6429784259
10
5.5978793025
20
32.6357891251
10
5.5907320435
20
32.6277251275
10
5.5841066943
20
32.618786433
10
5.5778510096
20
32.6088761538
10
5.5721172346
20
32.5980911777
10
5.5673621044
20
32.5867221685
10
5.5636856329
20
32.5746460046
10
5.5609878063
20
32.5619858075
10
5.559425318
20
32.5494016055
10
5.5591394829
20
32.536948529
10
5.5599889862
20
32.5245714474
10
5.5617065768
20
32.5127649975
10
5.5642031709
20
32.501694058
10
5.5675678523
20
32.4911937501
10
5.5718006209
20
32.4812640738
0
LWPOLYLINE
5
4B
100
AcDbEntity
8
0
6
CONTINUOUS
62
7
370
-1
100
AcDbPolyline
90
10
70
0
43
0
10
6.1468167412
20
33.121851798
10
6.0863681087
20
33.0738824287
10
6.0259410978
20
33.0245703843
10
5.9655357085
20
32.9739156648
10
5.9050781984
20
32.9218742977
10
5.84464231
20
32.8684902555
10
5.7844492703
20
32.8138954555
10
5.7245728218
20
32.7581338702
10
5.6649392221
20
32.701161527
10
5.6055484711
20
32.6429784259
0
LWPOLYLINE
5
4C
100
AcDbEntity
8
0
6
CONTINUOUS
62
7
370
-1
100
AcDbPolyline
90
7
70
0
43
0
10
5.880246174
20
32.2679674004
10
5.9026802633
20
32.2882747407
10
5.9251383934
20
32.3084021555
10
5.9476205641
20
32.3283496447
10
5.9701267756
20
32.3481172085
10
5.9926570277
20
32.3677048467
10
6.0152113205
20
32.3871125593
0
LWPOLYLINE
5
4D
100
AcDbEntity
8
0
6
CONTINUOUS
62
7
370
-1
100
AcDbPolyline
90
22
70
0
43
0
10
6.0152113205
20
32.3871125593
10
6.0286834376
20
32.399152053
10
6.0427550417
20
32.4101048908
10
6.057426133
20
32.4199710725
10
6.0728650569
20
32.4289531275
10
6.088903468
20
32.4368485265
10
6.1050363298
20
32.4430496821
10
6.1212048914
20
32.4473277896
10
6.1374679038
20
32.4499116538
10
6.1534965831
20
32.450880102
10
6.1691939823
20
32.4502663075
10
6.1846570483
20
32.4480370971
10
6.1998478382
20
32.4441717784
10
6.2148980514
20
32.4386194775
10
6.2296759885
20
32.4314310683
10
6.243748608
20
32.4227384806
10
6.2570611215
20
32.4122429837
10
6.2696683174
20
32.4002433081
10
6.2813015187
20
32.3877675755
10
6.2918711667
20
32.375158493
10
6.3014668201
20
32.3620733534
10
6.310088479
20
32.3485121567
0
LWPOLYLINE
5
4E
100
AcDbEntity
8
0
6
CONTINUOUS
62
7
370
-1
100
AcDbPolyline
90
22
70
0
43
0
10
6.3839618807
20
33.0435292353
10
6.3802339254
20
33.0589641169
10
6.3757043548
20
33.0739938991
10
6.3703731691
20
33.0886185819
10
6.3642927055
20
33.1031455039
10
6.3574106268
20
33.1172673266
10
6.3495699202
20
33.1300620335
10
6.3406806023
20
33.1413146484
10
6.3308326566
20
33.1512401475
10
6.3201390208
20
33.1595614438
10
6.3085932436
20
33.1662534464
10
6.2962017762
20
33.171341246
10
6.2830969104
20
33.1746230282
10
6.2691681725
20
33.1760666473
10
6.2545260361
20
33.175704249
10
6.2396342137
20
33.1734304558
10
6.2246158153
20
33.1691207287
10
6.2093477309
20
33.1628996066
10
6.1939243431
20
33.1550353286
10
6.1783771126
20
33.1456173077
10
6.1626745786
20
33.1345561308
10
6.1468167412
20
33.121851798
0
LWPOLYLINE
5
4F
100
AcDbEntity
8
0
6
CONTINUOUS
62
7
370
-1
100
AcDbPolyline
90
19
70
0
43
0
10
6.310088479
20
32.3485121567
10
6.3791655505
20
32.2532448737
10
6.4523188431
20
32.162024774
10
6.5295483566
20
32.0748518578
10
6.6110906922
20
31.9915288915
10
6.6967092488
20
31.9122531085
10
6.7856942237
20
31.8376162095
10
6.8780594153
20
31.7676718479
10
6.9737910251
20
31.7023663702
10
7.0721378553
20
31.642130517
10
7.173115089
20
31.5870070324
10
7.2767075431
20
31.5369531723
10
7.3821184695
20
31.4922714457
10
7.4894026028
20
31.4529983556
10
7.5985052084
20
31.4190973989
10
7.7084653352
20
31.3907615754
10
7.8189626664
20
31.3680552182
10
7.9303175189
20
31.3509139942
10
8.0571497837
20
31.3378550298
0
LWPOLYLINE
5
50
100
AcDbEntity
8
0
6
CONTINUOUS
62
7
370
-1
100
AcDbPolyline
90
18
70
0
43
0
10
8.0571497837
20
31.3378550298
10
8.0710318194
20
31.3355909425
10
8.0841759999
20
31.3325456414
10
8.0965745052
20
31.3285844362
10
8.1082351551
20
31.3238420171
10
8.1191814098
20
31.3187224547
10
8.1293996308
20
31.3133110616
10
8.1389034565
20
31.3075225251
10
8.1477572618
20
31.3015049769
10
8.1559918188
20
31.2952731271
10
8.1635763554
20
31.2888122657
10
8.1704829302
20
31.2822263947
10
8.1766454824
20
31.2755030092
10
8.1821300729
20
31.268654614
10
8.1871069429
20
31.2618227258
10
8.1916328397
20
31.2550545168
10
8.1956510159
20
31.2483028146
10
8.1991614718
20
31.2415676195
0
LWPOLYLINE
5
51
100
AcDbEntity
8
0
6
CONTINUOUS
62
7
370
-1
100
AcDbPolyline
90
19
70
0
43
0
10
8.5221503498
20
31.2415676195
10
8.52566874
20
31.2483193101
10
8.5296974063
20
31.2550867289
10
8.5342363485
20
31.2618698758
10
8.5392307395
20
31.2687174253
10
8.5447354065
20
31.2755807029
10
8.5509148312
20
31.2823136856
10
8.5578327161
20
31.2889010519
10
8.5654253587
20
31.2953581233
10
8.5736661324
20
31.3015848413
10
8.5825254192
20
31.3075973135
10
8.5920328371
20
31.3133794322
10
8.6022506136
20
31.3187828167
10
8.6131927253
20
31.3238918968
10
8.6248451956
20
31.3286222426
10
8.6372283214
20
31.3325721832
10
8.6503488684
20
31.3356078284
10
8.6642000709
20
31.3378630684
10
8.7909943027
20
31.3509139942
0
LWPOLYLINE
5
52
100
AcDbEntity
8
0
6
CONTINUOUS
62
7
370
-1
100
AcDbPolyline
90
18
70
0
43
0
10
10.4112233425
20
32.3485121567
10
10.342146271
20
32.2532448737
10
10.2689929785
20
32.162024774
10
10.1917634649
20
32.0748518578
10
10.1102211294
20
31.9915288915
10
10.0246025728
20
31.9122531085
10
9.9356175979
20
31.8376162095
10
9.8432524063
20
31.7676718479
10
9.7475207965
20
31.7023663702
10
9.6491739663
20
31.642130517
10
9.5481967325
20
31.5870070324
10
9.4446042785
20
31.5369531723
10
9.339193352
20
31.4922714457
10
9.2319092188
20
31.4529983556
10
9.1228066132
20
31.4190973989
10
9.0128464863
20
31.3907615754
10
8.9023491552
20
31.3680552182
10
8.7909943027
20
31.3509139942
0
LWPOLYLINE
5
53
100
AcDbEntity
8
0
6
CONTINUOUS
62
7
370
-1
100
AcDbPolyline
90
22
70
0
43
0
10
10.3373499409
20
33.0435292353
10
10.3410778962
20
33.0589641169
10
10.3456074667
20
33.0739938991
10
10.3509386525
20
33.0886185819
10
10.357019116
20
33.1031455039
10
10.3639011948
20
33.1172673266
10
10.3717419014
20
33.1300620335
10
10.3806312193
20
33.1413146484
10
10.390479165
20
33.1512401475
10
10.4011728008
20
33.1595614438
10
10.412718578
20
33.1662534464
10
10.4251100453
20
33.171341246
10
10.4382149112
20
33.1746230282
10
10.4521436491
20
33.1760666473
10
10.4667857855
20
33.175704249
10
10.4816776079
20
33.1734304558
10
10.4966960063
20
33.1691207287
10
10.5119640906
20
33.1628996066
10
10.5273874785
20
33.1550353286
10
10.542934709
20
33.1456173077
10
10.5586372429
20
33.1345561308
10
10.5744950804
20
33.121851798
0
LWPOLYLINE
5
54
100
AcDbEntity
8
0
6
CONTINUOUS
62
7
370
-1
100
AcDbPolyline
90
22
70
0
43
0
10
10.706100501
20
32.3871125593
10
10.692628384
20
32.399152053
10
10.6785567798
20
32.4101048908
10
10.6638856885
20
32.4199710725
10
10.6484467646
20
32.4289531275
10
10.6324083536
20
32.4368485265
10
10.6162754918
20
32.4430496821
10
10.6001069301
20
32.4473277896
10
10.5838439177
20
32.4499116538
10
10.5678152385
20
32.450880102
10
10.5521178393
20
32.4502663075
10
10.5366547733
20
32.4480370971
10
10.5214639834
20
32.4441717784
10
10.5064137701
20
32.4386194775
10
10.491635833
20
32.4314310683
10
10.4775632136
20
32.4227384806
10
10.4642507001
20
32.4122429837
10
10.4516435042
20
32.4002433081
10
10.4400103028
20
32.3877675755
10
10.4294406549
20
32.375158493
10
10.4198450015
20
32.3620733534
10
10.4112233425
20
32.3485121567
0
LWPOLYLINE
5
55
100
AcDbEntity
8
0
6
CONTINUOUS
62
7
370
-1
100
AcDbPolyline
90
7
70
0
43
0
10
10.8410656476
20
32.2679674004
10
10.8186315582
20
32.2882747407
10
10.7961734282
20
32.3084021555
10
10.7736912574
20
32.3283496447
10
10.751185046
20
32.3481172085
10
10.7286547939
20
32.3677048467
10
10.706100501
20
32.3871125593
0
LWPOLYLINE
5
56
100
AcDbEntity
8
0
6
CONTINUOUS
62
7
370
-1
100
AcDbPolyline
90
10
70
0
43
0
10
10.5744950804
20
33.121851798
10
10.6349437129
20
33.0738824287
10
10.6953707238
20
33.0245703843
10
10.7557761131
20
32.9739156648
10
10.8162336231
20
32.9218742977
10
10.8766695116
20
32.8684902555
10
10.9368625512
20
32.8138954555
10
10.9967389997
20
32.7581338702
10
11.0563725995
20
32.701161527
10
11.1157633505
20
32.6429784259
0
LWPOLYLINE
5
57
100
AcDbEntity
8
0
6
CONTINUOUS
62
7
370
-1
100
AcDbPolyline
90
16
70
0
43
0
10
11.1157633505
20
32.6429784259
10
11.1234325191
20
32.6357891251
10
11.130579778
20
32.6277251275
10
11.1372051273
20
32.618786433
10
11.143460812
20
32.6088761538
10
11.149194587
20
32.5980911777
10
11.1539497171
20
32.5867221685
10
11.1576261886
20
32.5746460046
10
11.1603240153
20
32.5619858075
10
11.1618865036
20
32.5494016055
10
11.1621723386
20
32.536948529
10
11.1613228353
20
32.5245714474
10
11.1596052448
20
32.5127649975
10
11.1571086507
20
32.501694058
10
11.1537439693
20
32.4911937501
10
11.1495112007
20
32.4812640738
0
LWPOLYLINE
5
58
100
AcDbEntity
8
0
6
CONTINUOUS
62
7
370
-1
100
AcDbPolyline
90
22
70
0
43
0
10
11.0778780022
20
32.3153377952
10
11.0720287102
20
32.3021713978
10
11.0655023976
20
32.2894853344
10
11.0582990647
20
32.2772796049
10
11.0505190883
20
32.2653777381
10
11.0420620914
20
32.2539562052
10
11.0326269429
20
32.2435444202
10
11.0220665056
20
32.2341035363
10
11.0105279166
20
32.2256724003
10
10.9981514564
20
32.2188969662
10
10.9847368237
20
32.2138847419
10
10.9704843199
20
32.2105282195
10
10.9561351294
20
32.20915083
10
10.9417450393
20
32.2100002672
10
10.9272582626
20
32.2128288374
10
10.9132486229
20
32.2172168898
10
10.8998811968
20
32.2233018606
10
10.8869909076
20
32.2309463138
10
10.8746563488
20
32.2393182903
10
10.862903718
20
32.2481404704
10
10.8517068177
20
32.2576901737
10
10.8410656476
20
32.2679674004
0
LWPOLYLINE
5
59
100
AcDbEntity
8
0
6
CONTINUOUS
62
7
370
-1
100
AcDbPolyline
90
37
70
0
43
0
10
13.0361238212
20
32.1433536904
10
13.0423008865
20
32.160663327
10
13.0486455823
20
32.1772331503
10
13.0551579089
20
32.1930631605
10
13.0618783366
20
32.2082479395
10
13.0687663949
20
32.2226929053
10
13.0757006726
20
32.2361143117
10
13.082562811
20
32.2483056538
10
13.0894711688
20
32.2594734366
10
13.0966594105
20
32.2699534291
10
13.1041460047
20
32.279896911
10
13.1119124829
20
32.2891526027
10
13.1201371036
20
32.2976024341
10
13.1290092904
20
32.3053883617
10
13.1383396197
20
32.312368429
10
13.1477380792
20
32.3179986972
10
13.1571023159
20
32.322124186
10
13.1665346828
20
32.3248998758
10
13.1759522267
20
32.3262467677
10
13.1853616057
20
32.326146749
10
13.1947561616
20
32.3246179326
10
13.2040329662
20
32.3216356589
10
13.2132437242
20
32.3170774222
10
13.2223367309
20
32.3110657282
10
13.2310539445
20
32.3039434342
10
13.2393041058
20
32.2956904517
10
13.247178474
20
32.2863268692
10
13.2546927841
20
32.2762558097
10
13.2617541751
20
32.265652527
10
13.268455508
20
32.2543417673
10
13.2750911006
20
32.2422008921
10
13.2817161772
20
32.2291230235
10
13.2882755135
20
32.2152150395
10
13.2948977544
20
32.2006749344
10
13.3016257817
20
32.1855687065
10
13.3084167136
20
32.1698303575
10
13.3152705502
20
32.1534598876
0
LWPOLYLINE
5
5A
100
AcDbEntity
8
0
6
CONTINUOUS
62
7
370
-1
100
AcDbPolyline
90
37
70
0
43
0
10
14.4129549265
20
30.5415182252
10
14.3969277975
20
30.5385385582
10
14.3810537612
20
30.535958079
10
14.3653328175
20
30.5337767877
10
14.3497017414
20
30.5319463218
10
14.3342237579
20
30.5305150437
10
14.3190885422
20
30.5296280408
10
14.3042615486
20
30.5293037652
10
14.2897773229
20
30.5295237648
10
14.2759291776
20
30.5303777704
10
14.2627698526
20
30.5318752366
10
14.250246608
20
30.5340067087
10
14.2384945376
20
30.5368335537
10
14.2275274603
20
30.5403127767
10
14.2173315572
20
30.5444873726
10
14.208000465
20
30.5495476936
10
14.1994045346
20
30.5556237913
10
14.191673415
20
30.5625856141
10
14.1852896901
20
30.5702333591
10
14.1804082486
20
30.5785046408
10
14.1768742018
20
30.5874618448
10
14.1747054669
20
30.5970923245
10
14.1739653078
20
30.6075415178
10
14.1745904607
20
30.6186639869
10
14.1764090512
20
30.6300107725
10
14.1795091407
20
30.6415235691
10
14.1838026679
20
30.6532606823
10
14.1888535741
20
30.6649480693
10
14.194511238
20
30.6763447249
10
14.2009262809
20
30.6876916543
10
14.2081145091
20
30.6994378309
10
14.2161879705
20
30.7117693475
10
14.2250346171
20
30.7245001112
10
14.234334111
20
30.7375208174
10
14.2439796729
20
30.750795031
10
14.2540780821
20
30.7643591869
10
14.2646293386
20
30.7782132853
0
LWPOLYLINE
5
5B
100
AcDbEntity
8
0
6
CONTINUOUS
62
7
370
-1
100
AcDbPolyline
90
40
70
0
43
0
10
13.2621293054
20
30.9449790532
10
13.2522506849
20
30.9565368073
10
13.2427374226
20
30.9681390982
10
13.2335895184
20
30.9797859257
10
13.2247432538
20
30.9915136421
10
13.2162623474
20
31.0032858952
10
13.2083379546
20
31.0149936289
10
13.2009997577
20
31.0266007083
10
13.1942180745
20
31.0381432684
10
13.1880950138
20
31.0496206585
10
13.1826022205
20
31.0611267649
10
13.1777680497
20
31.0725677014
10
13.1737796761
20
31.0836611587
10
13.1706706715
20
31.094257667
10
13.168407464
20
31.1045066962
10
13.1670765131
20
31.1145743468
10
13.1666575129
20
31.1246456334
10
13.1671707694
20
31.1345355414
10
13.168763659
20
31.1438551278
10
13.171482328
20
31.1525142156
10
13.1752806303
20
31.1606029819
10
13.1801675042
20
31.1680030152
10
13.1861667309
20
31.1746976269
10
13.1932545294
20
31.1807035056
10
13.2013684949
20
31.1859523062
10
13.2106880523
20
31.1904232703
10
13.2210337768
20
31.1941371561
10
13.2318049898
20
31.1970878931
10
13.2428332803
20
31.1991899337
10
13.2542870591
20
31.2005288254
10
13.2660708807
20
31.201355141
10
13.2780429768
20
31.201708268
10
13.2903451156
20
31.2015488189
10
13.3033071561
20
31.2010092034
10
13.3171370738
20
31.2000695778
10
13.3316268932
20
31.1987497858
10
13.3464825469
20
31.1972417689
10
13.3616060124
20
31.1956095077
10
13.3770953122
20
31.1937890215
10
13.3929504463
20
31.1917803104
0
LWPOLYLINE
5
5C
100
AcDbEntity
8
0
6
CONTINUOUS
62
7
370
-1
100
AcDbPolyline
90
10
70
0
43
0
10
13.3721493948
20
30.399765654
10
13.3737398135
20
30.4164492995
10
13.3759548023
20
30.4333572971
10
13.3787943612
20
30.450489647
10
13.3822822372
20
30.467859285
10
13.3863946832
20
30.4854532753
10
13.3910604581
20
30.5032328096
10
13.3962558149
20
30.5211849518
10
13.4020045005
20
30.539322638
10
13.408306515
20
30.5576458682
0
LWPOLYLINE
5
5D
100
AcDbEntity
8
0
6
CONTINUOUS
62
7
370
-1
100
AcDbPolyline
90
10
70
0
43
0
10
13.1113266169
20
30.5984571044
10
13.1163510061
20
30.6144455056
10
13.1220329625
20
30.6305235008
10
13.128372486
20
30.6466910902
10
13.1353954944
20
30.6629559898
10
13.1430760698
20
30.6793104836
10
13.1513364594
20
30.6957314232
10
13.1601507454
20
30.7122110927
10
13.1695448454
20
30.728757208
10
13.1795187596
20
30.7453697691
0
LWPOLYLINE
5
5E
100
AcDbEntity
8
0
6
CONTINUOUS
62
7
370
-1
100
AcDbPolyline
90
10
70
0
43
0
10
12.8975137179
20
30.8470347747
10
12.9057524877
20
30.8616291616
10
12.9146530829
20
30.876174469
10
12.9242155035
20
30.8906706967
10
12.934466705
20
30.9051200037
10
12.9453797319
20
30.9195202311
10
12.9568737175
20
30.9338649022
10
12.9689217061
20
30.9481518582
10
12.9815506533
20
30.962383258
10
12.9947605592
20
30.9765591015
0
LWPOLYLINE
5
5F
100
AcDbEntity
8
0
6
CONTINUOUS
62
7
370
-1
100
AcDbPolyline
90
7
70
0
43
0
10
14.1092695462
20
32.7015724396
10
14.0718592306
20
32.6492385026
10
14.0361423146
20
32.5951928711
10
14.0021187982
20
32.5394355451
10
13.9697886815
20
32.4819665245
10
13.9391519644
20
32.4227858095
10
13.910208647
20
32.3618933999
0
LWPOLYLINE
5
60
100
AcDbEntity
8
0
6
CONTINUOUS
62
7
370
-1
100
AcDbPolyline
90
10
70
0
43
0
10
12.7400553475
20
31.1346346278
10
12.7511484241
20
31.1471971558
10
12.7628786593
20
31.1595740755
10
12.7752460533
20
31.1717653868
10
12.7882774213
20
31.1837675971
10
12.8019459481
20
31.1955841991
10
12.8161711873
20
31.2072256708
10
12.8309263236
20
31.2186955049
10
12.8462381725
20
31.2299902086
10
12.8621067338
20
31.2411097821
0
LWPOLYLINE
5
61
100
AcDbEntity
8
0
6
CONTINUOUS
62
7
370
-1
100
AcDbPolyline
90
10
70
0
43
0
10
12.645833192
20
31.4486871701
10
12.6592957547
20
31.4586687964
10
12.6733429625
20
31.4683363976
10
12.6879748153
20
31.4776899738
10
12.7032168166
20
31.4867205333
10
12.7190434629
20
31.4954370677
10
12.7353782446
20
31.5038665517
10
12.7521956584
20
31.512017977
10
12.7695212075
20
31.519882352
10
12.787354892
20
31.5274596767
0
LWPOLYLINE
5
62
100
AcDbEntity
8
0
6
CONTINUOUS
62
7
370
-1
100
AcDbPolyline
90
10
70
0
43
0
10
12.6189652118
20
31.7754667985
10
12.6342088819
20
31.7824312782
10
12.6499591318
20
31.7889670404
10
12.6662159615
20
31.7950740852
10
12.6830024473
20
31.8007383151
10
12.7002955128
20
31.8059738275
10
12.7180259286
20
31.810822915
10
12.7361706182
20
31.8152996752
10
12.754752658
20
31.8193900105
10
12.7737720481
20
31.8230939209
0
LWPOLYLINE
5
63
100
AcDbEntity
8
0
6
CONTINUOUS
62
7
370
-1
100
AcDbPolyline
90
10
70
0
43
0
10
15.7132732183
20
31.3790940497
10
15.6969146622
20
31.3754510979
10
15.6801497317
20
31.3723328188
10
15.6629784268
20
31.3697392125
10
15.6453811063
20
31.3676888663
10
15.6273774115
20
31.3661631929
10
15.6090262659
20
31.3651064303
10
15.5903473105
20
31.3644999912
10
15.5713209043
20
31.3643624628
10
15.5519470472
20
31.3646938453
0
LWPOLYLINE
5
64
100
AcDbEntity
8
0
6
CONTINUOUS
62
7
370
-1
100
AcDbPolyline
90
10
70
0
43
0
10
15.6049050906
20
31.0696378124
10
15.5881465958
20
31.0694756029
10
15.5710996926
20
31.0699110907
10
15.5537643809
20
31.070944276
10
15.5361253132
20
31.0725974235
10
15.5181978369
20
31.0748482683
10
15.5000279945
20
31.0776300162
10
15.4816311334
20
31.0809204024
10
15.4629919061
20
31.0847416917
10
15.4441103125
20
31.089093884
0
LWPOLYLINE
5
65
100
AcDbEntity
8
0
6
CONTINUOUS
62
7
370
-1
100
AcDbPolyline
90
7
70
0
43
0
10
13.3929504463
20
31.1917803104
10
13.4569781231
20
31.1855489952
10
13.5216414709
20
31.1816400544
10
13.5869404899
20
31.1800534879
10
13.65287518
20
31.1807892958
10
13.7194455412
20
31.183847478
10
13.7866515735
20
31.1892280346
0
LWPOLYLINE
5
66
100
AcDbEntity
8
0
6
CONTINUOUS
62
7
370
-1
100
AcDbPolyline
90
10
70
0
43
0
10
15.4345654969
20
30.7894749371
10
15.4181394902
20
30.7928005592
10
15.4015556457
20
30.796770781
10
15.3848139634
20
30.8013856027
10
15.3679040604
20
30.8066699933
10
15.3508363195
20
30.8125989837
10
15.3336418896
20
30.8190976664
10
15.3163311538
20
30.8261410723
10
15.298893729
20
30.8337541705
10
15.2813296153
20
30.841936961
0
LWPOLYLINE
5
67
100
AcDbEntity
8
0
6
CONTINUOUS
62
7
370
-1
100
AcDbPolyline
90
10
70
0
43
0
10
15.2096990949
20
30.5508498857
10
15.1943234716
20
30.5575179938
10
15.1789274794
20
30.5648494319
10
15.1635111184
20
30.5728442001
10
15.1480694239
20
30.5815288807
10
15.1326073605
20
30.5908768912
10
15.1171398223
20
30.6008084851
10
15.101671774
20
30.61129708
10
15.0861982509
20
30.6223692582
10
15.070719253
20
30.6340250197
0
LWPOLYLINE
5
68
100
AcDbEntity
8
0
6
CONTINUOUS
62
7
370
-1
100
AcDbPolyline
90
10
70
0
43
0
10
14.9401336254
20
30.364191718
10
14.9264803739
20
30.3739108838
10
14.9129451129
20
30.3842831192
10
14.8995278421
20
30.3953084242
10
14.8862292323
20
30.4070138324
10
14.8730486128
20
30.4193723103
10
14.8599839719
20
30.4323027571
10
14.847034639
20
30.4457781391
10
14.8342012848
20
30.45982549
10
14.8214839093
20
30.4744448097
0
LWPOLYLINE
5
69
100
AcDbEntity
8
0
6
CONTINUOUS
62
7
370
-1
100
AcDbPolyline
90
10
70
0
43
0
10
14.6376503929
20
30.2376582917
10
14.6263162259
20
30.250003741
10
14.6152332518
20
30.2629634572
10
14.6044014704
20
30.2765374403
10
14.5938271583
20
30.2907519937
10
14.583504039
20
30.3055808141
10
14.5734132829
20
30.3209449911
10
14.5635486135
20
30.3368182214
10
14.5539163074
20
30.3532268083
10
14.5445163645
20
30.3701707519
0
LWPOLYLINE
5
6A
100
AcDbEntity
8
0
6
CONTINUOUS
62
7
370
-1
100
AcDbPolyline
90
10
70
0
43
0
10
14.3154693661
20
30.1767797247
10
14.3069496412
20
30.1912119021
10
14.2988033331
20
30.2061926972
10
14.2910304419
20
30.2217221102
10
14.2836425758
20
30.2378245647
10
14.2766281265
20
30.2544756369
10
14.2699522697
20
30.271602056
10
14.2636033971
20
30.2891793982
10
14.257593117
20
30.3072320872
10
14.2519214294
20
30.325760123
0
LWPOLYLINE
5
6B
100
AcDbEntity
8
0
6
CONTINUOUS
62
7
370
-1
100
AcDbPolyline
90
7
70
0
43
0
10
13.3152705502
20
32.1534598876
10
13.3418879113
20
32.0948946354
10
13.3708343431
20
32.0369400631
10
13.4021098457
20
31.9795961706
10
13.4357144191
20
31.9228629579
10
13.4716480632
20
31.8667404251
10
13.5099107781
20
31.8112285721
0
LWPOLYLINE
5
6C
100
AcDbEntity
8
0
6
CONTINUOUS
62
7
370
-1
100
AcDbPolyline
90
10
70
0
43
0
10
13.987671402
20
30.1842167024
10
13.9823384719
20
30.2001048525
10
13.9774848627
20
30.2164519941
10
13.9731105743
20
30.2332581271
10
13.9692320393
20
30.250544728
10
13.9658328252
20
30.2682903204
10
13.9628636346
20
30.2864304748
10
13.960308035
20
30.3049437147
10
13.9581824591
20
30.3238515167
10
13.9564869067
20
30.3431538806
0
LWPOLYLINE
5
6D
100
AcDbEntity
8
0
6
CONTINUOUS
62
7
370
-1
100
AcDbPolyline
90
10
70
0
43
0
10
13.6685828445
20
30.2596441933
10
13.6666697839
20
30.2762939277
10
13.6653209995
20
30.2932929671
10
13.6645364914
20
30.3106413115
10
13.6643367981
20
30.3283565515
10
13.664701381
20
30.3464210965
10
13.6655686245
20
30.3647821744
10
13.66691799
20
30.3834221946
10
13.6687700161
20
30.4023587478
10
13.6711247027
20
30.421591834
0
LWPOLYLINE
5
6E
100
AcDbEntity
8
0
6
CONTINUOUS
62
7
370
-1
100
AcDbPolyline
90
31
70
0
43
0
10
13.910208647
20
32.3618933999
10
13.9011895856
20
32.341085386
10
13.8922205377
20
32.321469874
10
13.8833015034
20
32.3030468641
10
13.8747599067
20
32.2860316928
10
13.8662683235
20
32.2702090236
10
13.8568444814
20
32.2549328466
10
13.8459332255
20
32.2395056946
10
13.8340897107
20
32.224625035
10
13.821997129
20
32.21173726
10
13.8100501929
20
32.2013810669
10
13.7978541899
20
32.1930177584
10
13.7849081741
20
32.186477635
10
13.7708003307
20
32.1816133464
10
13.7559424744
20
32.178572243
10
13.7410691035
20
32.1776266755
10
13.7262230898
20
32.1790864404
10
13.7113615615
20
32.1826417414
10
13.6970904013
20
32.1876355403
10
13.6838181083
20
32.1937883378
10
13.6711361835
20
32.2013796332
10
13.6584250132
20
32.2105908874
10
13.6452460959
20
32.221786994
10
13.6320379332
20
32.2346030593
10
13.6194964161
20
32.2481258628
10
13.6080937229
20
32.2618659615
10
13.5973576754
20
32.2763127984
10
13.5865676293
20
32.2920214815
10
13.5754833701
20
32.3091770468
10
13.5643451124
20
32.3275944583
10
13.5531528562
20
32.347273716
0
LWPOLYLINE
5
6F
100
AcDbEntity
8
0
6
CONTINUOUS
62
7
370
-1
100
AcDbPolyline
90
31
70
0
43
0
10
13.7866515735
20
31.1892280346
10
13.8091813729
20
31.1918213053
10
13.8306534284
20
31.193861638
10
13.8510677402
20
31.1953490326
10
13.8700741091
20
31.1964593785
10
13.8880227343
20
31.1970167864
10
13.9059642126
20
31.1964935882
10
13.9247801461
20
31.1947577394
10
13.9435889328
20
31.1919412846
10
13.9607963642
20
31.1879126891
10
13.9757385586
20
31.1827444355
10
13.9890793977
20
31.1763640413
10
14.0012163186
20
31.1684225245
10
14.0124828377
20
31.1586369179
10
14.0225454387
20
31.1472901887
10
14.0308010096
20
31.1348822554
10
14.036959823
20
31.1212953479
10
14.0413116062
20
31.1066472364
10
14.0441224295
20
31.0917911497
10
14.0454300971
20
31.077220608
10
14.0451968048
20
31.0624420912
10
14.0435752099
20
31.0468282678
10
14.0404685558
20
31.0298169373
10
14.035973599
20
31.0119703002
10
14.0305332662
20
30.9943476261
10
14.0243353382
20
30.9776025548
10
14.0171920343
20
30.9610814464
10
14.0089829387
20
30.9438826509
10
13.9996679129
20
30.9257056182
10
13.9892870955
20
30.9068508983
10
13.9778404865
20
30.8873184912
0
LWPOLYLINE
5
70
100
AcDbEntity
8
0
6
CONTINUOUS
62
7
370
-1
100
AcDbPolyline
90
31
70
0
43
0
10
13.5099107781
20
31.8112285721
10
13.5234215161
20
31.7930138288
10
13.5359245238
20
31.7754386496
10
13.5474198012
20
31.7585030343
10
13.5578845734
20
31.7425982089
10
13.5673416154
20
31.7273329475
10
13.5758592516
20
31.7115335724
10
13.5837639292
20
31.6943705716
10
13.5907292011
20
31.6766734571
10
13.5958440508
20
31.6597570866
10
13.5988393091
20
31.6442326399
10
13.5999841452
20
31.6294889373
10
13.5991750503
20
31.615007297
10
13.596333726
20
31.6003574019
10
13.5915384708
20
31.5859695692
10
13.5849206707
20
31.5726160685
10
13.5762334704
20
31.5604889259
10
13.5657237253
20
31.5493961153
10
13.5542633885
20
31.5395338276
10
13.5422987631
20
31.5311160834
10
13.5293835459
20
31.523928862
10
13.5150507807
20
31.5175262927
10
13.4987652093
20
31.5117110689
10
13.4810620898
20
31.5066804971
10
13.4630802399
20
31.5025806264
10
13.4454796188
20
31.4995756538
10
13.4276002673
20
31.4975013823
10
13.4086011256
20
31.4960112699
10
13.3882018407
20
31.4949898025
10
13.3666827656
20
31.4945524941
10
13.3440439004
20
31.4946993447
0
LWPOLYLINE
5
71
100
AcDbEntity
8
0
6
CONTINUOUS
62
7
370
-1
100
AcDbPolyline
90
10
70
0
43
0
10
13.9564869067
20
33.1366318443
10
13.9581819822
20
33.1559304506
10
13.9603071421
20
33.17483546
10
13.9628623864
20
33.1933468726
10
13.9658312047
20
33.2114861992
10
13.9692301075
20
33.2292319289
10
13.9731086255
20
33.2465195293
10
13.9774832691
20
33.2633274896
10
13.9823375279
20
33.2796773207
10
13.987671402
20
33.2955690225
0
LWPOLYLINE
5
72
100
AcDbEntity
8
0
6
CONTINUOUS
62
7
370
-1
100
AcDbPolyline
90
10
70
0
43
0
10
14.2519214294
20
33.1540256019
10
14.2575918693
20
33.1725500613
10
14.2636011618
20
33.1906001053
10
14.269949307
20
33.208175734
10
14.2766246276
20
33.2253014207
10
14.2836388008
20
33.241952692
10
14.2910268581
20
33.2580561276
10
14.2988004767
20
33.2735872542
10
14.3069479794
20
33.288570545
10
14.3154693661
20
33.3030060002
0
LWPOLYLINE
5
73
100
AcDbEntity
8
0
6
CONTINUOUS
62
7
370
-1
100
AcDbPolyline
90
10
70
0
43
0
10
14.5445163645
20
33.109614973
10
14.5539143433
20
33.1265556778
10
14.5635451336
20
33.1429618829
10
14.5734087352
20
33.1588335883
10
14.5834988145
20
33.1741971604
10
14.5938217052
20
33.1890262329
10
14.6043964083
20
33.2032417063
10
14.6152292574
20
33.2168172143
10
14.626313919
20
33.2297791233
10
14.6376503929
20
33.2421274332
0
LWPOLYLINE
5
74
100
AcDbEntity
8
0
6
CONTINUOUS
62
7
370
-1
100
AcDbPolyline
90
10
70
0
43
0
10
14.8214839093
20
33.0053409152
10
14.8341986903
20
33.0199574752
10
14.8470300665
20
33.0340028115
10
14.8599780379
20
33.047476924
10
14.8730418911
20
33.0604069198
10
14.8862223393
20
33.0727656918
10
14.8995215229
20
33.0844719186
10
14.9129401551
20
33.0954984932
10
14.9264775226
20
33.1058725226
10
14.9401336254
20
33.1155940069
0
LWPOLYLINE
5
75
100
AcDbEntity
8
0
6
CONTINUOUS
62
7
370
-1
100
AcDbPolyline
90
10
70
0
43
0
10
15.070719253
20
32.8457607052
10
15.0861951393
20
32.8574143067
10
15.1016663088
20
32.8684849256
10
15.1171327614
20
32.8789725617
10
15.1325994353
20
32.8889038783
10
15.1480613924
20
32.8982522122
10
15.1635038183
20
32.9069375741
10
15.178921775
20
32.9149333011
10
15.1943202005
20
32.9222660561
10
15.2096990949
20
32.9289358392
0
LWPOLYLINE
5
76
100
AcDbEntity
8
0
6
CONTINUOUS
62
7
370
-1
100
AcDbPolyline
90
10
70
0
43
0
10
15.2813296153
20
32.6378487639
10
15.2988902363
20
32.6460300886
10
15.3163250347
20
32.6536421509
10
15.3336340104
20
32.6606849507
10
15.3508275372
20
32.6671835419
10
15.3678952413
20
32.6731128706
10
15.3848060014
20
32.6783977757
10
15.4015494439
20
32.6830132034
10
15.4181359424
20
32.6869842074
10
15.4345654969
20
32.6903107878
0
LWPOLYLINE
5
77
100
AcDbEntity
8
0
6
CONTINUOUS
62
7
370
-1
100
AcDbPolyline
90
10
70
0
43
0
10
12.9297885722
20
31.089093884
10
12.9109106998
20
31.0847423993
10
12.8922742569
20
31.0809215773
10
12.8738792434
20
31.0776314179
10
12.8557103033
20
31.0748495718
10
12.8377827928
20
31.0725983884
10
12.8201427798
20
31.0709449159
10
12.8028056203
20
31.0699115038
10
12.7857559585
20
31.0694758026
10
12.7689937942
20
31.0696378124
0
LWPOLYLINE
5
78
100
AcDbEntity
8
0
6
CONTINUOUS
62
7
370
-1
100
AcDbPolyline
90
10
70
0
43
0
10
12.8219518375
20
31.3646938453
10
12.8025817674
20
31.3643623813
10
12.7835581818
20
31.3644997878
10
12.7648810809
20
31.3651060647
10
12.7465307975
20
31.3661625436
10
12.7285269987
20
31.367687893
10
12.710928686
20
31.3697381177
10
12.6937555267
20
31.3723318863
10
12.6769878535
20
31.3754505303
10
12.6606256664
20
31.3790940497
0
LWPOLYLINE
5
79
100
AcDbEntity
8
0
6
CONTINUOUS
62
7
370
-1
100
AcDbPolyline
90
24
70
0
43
0
10
13.2860614064
20
31.4964692851
10
13.262209463
20
31.4983683651
10
13.2383835713
20
31.5013609338
10
13.2144290774
20
31.5052697006
10
13.1905006352
20
31.5102719561
10
13.1670622057
20
31.5168995724
10
13.1441645705
20
31.5251390462
10
13.121756948
20
31.5350038809
10
13.1001509547
20
31.5470664583
10
13.079072212
20
31.5616539387
10
13.0587950984
20
31.5784391618
10
13.0404543671
20
31.5970130282
10
13.0243204336
20
31.617570101
10
13.0101228824
20
31.639915817
10
12.9981852189
20
31.6630573875
10
12.9887596364
20
31.6868167662
10
12.9815939417
20
31.7113719995
10
12.9762550603
20
31.7362644375
10
12.9727934632
20
31.7614868466
10
12.9711586793
20
31.7870464604
10
12.9707662208
20
31.8125063291
10
12.9714212583
20
31.8377208028
10
12.9733186212
20
31.8628355314
10
12.9764583094
20
31.8878505149
0
LWPOLYLINE
5
7A
100
AcDbEntity
8
0
6
CONTINUOUS
62
7
370
-1
100
AcDbPolyline
90
10
70
0
43
0
10
12.7737720481
20
31.656691804
10
12.7547563452
20
31.6603948474
10
12.7361770391
20
31.664484477
10
12.7180341297
20
31.6689606929
10
12.7003044983
20
31.6738093237
10
12.6830112637
20
31.6790445407
10
12.6662237821
20
31.6847088581
10
12.6499651723
20
31.6908164472
10
12.6342123155
20
31.6973531367
10
12.6189652118
20
31.7043189264
0
LWPOLYLINE
5
7B
100
AcDbEntity
8
0
6
CONTINUOUS
62
7
370
-1
100
AcDbPolyline
90
10
70
0
43
0
10
12.787354892
20
31.9523260482
10
12.7695246339
20
31.9599017581
10
12.752201612
20
31.9677648745
10
12.7353858263
20
31.9759153973
10
12.7190517169
20
31.9843442715
10
12.7032248438
20
31.9930605522
10
12.6879818867
20
32.0020914043
10
12.6733484057
20
32.011445883
10
12.6592988408
20
32.0211149332
10
12.645833192
20
32.0310985548
0
LWPOLYLINE
5
7C
100
AcDbEntity
8
0
6
CONTINUOUS
62
7
370
-1
100
AcDbPolyline
90
10
70
0
43
0
10
12.8621067338
20
32.2386759428
10
12.8462411882
20
32.2497932244
10
12.8309315497
20
32.2610861716
10
12.8161778183
20
32.2725547844
10
12.8019531099
20
32.2841955198
10
12.7882843086
20
32.2960119207
10
12.7752520664
20
32.3080146161
10
12.7628832676
20
32.3202071487
10
12.7511510279
20
32.3325859757
10
12.7400553475
20
32.3451510971
0
LWPOLYLINE
5
7D
100
AcDbEntity
8
0
6
CONTINUOUS
62
7
370
-1
100
AcDbPolyline
90
10
70
0
43
0
10
12.9947605592
20
32.5032266234
10
12.9815531267
20
32.5173995981
10
12.9689259763
20
32.5316288202
10
12.956879108
20
32.5459142895
10
12.9453854885
20
32.56025813
10
12.9344721512
20
32.5746582179
10
12.9242201955
20
32.5891081811
10
12.9146566547
20
32.6036058955
10
12.9057544955
20
32.6181534852
10
12.8975137179
20
32.6327509502
0
LWPOLYLINE
5
7E
100
AcDbEntity
8
0
6
CONTINUOUS
62
7
370
-1
100
AcDbPolyline
90
10
70
0
43
0
10
13.1795187596
20
32.7344159558
10
13.1695466683
20
32.7510251966
10
13.160153873
20
32.7675688082
10
13.1513403738
20
32.7840467905
10
13.1430801697
20
32.8004668416
10
13.1353992615
20
32.8168212634
10
13.128375652
20
32.8330869616
10
13.1220353417
20
32.8492562381
10
13.1163523301
20
32.8653367911
10
13.1113266169
20
32.8813286205
0
LWPOLYLINE
5
7F
100
AcDbEntity
8
0
6
CONTINUOUS
62
7
370
-1
100
AcDbPolyline
90
24
70
0
43
0
10
13.5256060032
20
32.3985459999
10
13.5152598525
20
32.4203097583
10
13.5058973053
20
32.4425825281
10
13.4972881748
20
32.4653997713
10
13.4896626479
20
32.4887260259
10
13.4837112851
20
32.5124549066
10
13.4794449866
20
32.5365606147
10
13.4768528522
20
32.5610689488
10
13.476592742
20
32.5859509193
10
13.4788185108
20
32.6115894226
10
13.4833763039
20
32.6376015623
10
13.4904624163
20
32.6628096594
10
13.5004005422
20
32.6870948727
10
13.5128669876
20
32.7105760435
10
13.5270869652
20
32.7324320167
10
13.5429986197
20
32.7523149095
10
13.5606638064
20
32.7705726047
10
13.5794933037
20
32.7874275969
10
13.5995093488
20
32.8028561992
10
13.6206897043
20
32.8168820984
10
13.6423784368
20
32.8297988488
10
13.6643569015
20
32.8417043017
10
13.6868437431
20
32.8525006057
10
13.7098389616
20
32.8621877609
0
LWPOLYLINE
5
80
100
AcDbEntity
8
0
6
CONTINUOUS
62
7
370
-1
100
AcDbPolyline
90
10
70
0
43
0
10
13.408306515
20
32.9221398567
10
13.4020055932
20
32.9404594601
10
13.3962576633
20
32.9585944261
10
13.3910627253
20
32.9765447544
10
13.386396947
20
32.994323381
10
13.3822841607
20
33.0119173701
10
13.3787958626
20
33.0292879143
10
13.375955885
20
33.046422078
10
13.3737403957
20
33.0633327968
10
13.3721493948
20
33.0800200709
0
LWPOLYLINE
5
81
100
AcDbEntity
8
0
6
CONTINUOUS
62
7
370
-1
100
AcDbPolyline
90
10
70
0
43
0
10
13.6711247027
20
33.0581938909
10
13.6687703308
20
33.0774232024
10
13.6669184784
20
33.0963569376
10
13.6655691454
20
33.1149950966
10
13.6647017099
20
33.1333552874
10
13.6643367938
20
33.1514199019
10
13.6645362627
20
33.169136116
10
13.6653207383
20
33.1864863216
10
13.666669599
20
33.2034881268
10
13.6685828445
20
33.2201415316
0
LINE
5
82
100
AcDbEntity
8
0
6
CONTINUOUS
62
7
370
-1
100
AcDbLine
10
14.3960583982
20
32.5924672337
11
14.4019491509
21
32.6022022566
0
LINE
5
83
100
AcDbEntity
8
0
6
CONTINUOUS
62
7
370
-1
100
AcDbLine
10
14.4019491509
20
32.6022022566
11
14.4079116177
21
32.6118866526
0
LWPOLYLINE
5
84
100
AcDbEntity
8
0
6
CONTINUOUS
62
7
370
-1
100
AcDbPolyline
90
22
70
0
43
0
10
14.4139457985
20
32.6215204217
10
14.4286617585
20
32.6452235293
10
14.4446274175
20
32.6679648305
10
14.4618427754
20
32.6897443254
10
14.4801430067
20
32.7108491419
10
14.499692937
20
32.7309921521
10
14.5209870435
20
32.7493119721
10
14.5442961059
20
32.76589202
10
14.5693493445
20
32.7806488777
10
14.5958288976
20
32.7924709066
10
14.6241374253
20
32.8010994801
10
14.6538722675
20
32.8067932248
10
14.6835075821
20
32.8092163821
10
14.7127901278
20
32.8079800295
10
14.7419731458
20
32.8034730895
10
14.7702905184
20
32.7965265702
10
14.7974925716
20
32.7870859263
10
14.8238289793
20
32.7752057031
10
14.849282645
20
32.7618805453
10
14.8738478701
20
32.747442001
10
14.8975303533
20
32.7315585221
10
14.9203300946
20
32.7142301085
0
LINE
5
85
100
AcDbEntity
8
0
6
CONTINUOUS
62
7
370
-1
100
AcDbLine
10
14.4079116177
20
32.6118866526
11
14.4139457985
21
32.6215204217
0
LINE
5
86
100
AcDbEntity
8
0
6
CONTINUOUS
62
7
370
-1
100
AcDbLine
10
13.3440439004
20
31.4946993447
11
13.3326677469
21
31.4949333748
0
LINE
5
87
100
AcDbEntity
8
0
6
CONTINUOUS
62
7
370
-1
100
AcDbLine
10
13.3326677469
20
31.4949333748
11
13.3212995805
21
31.4952548245
0
LINE
5
88
100
AcDbEntity
8
0
6
CONTINUOUS
62
7
370
-1
100
AcDbLine
10
13.3212995805
20
31.4952548245
11
13.2860614064
21
31.4964692851
0
LINE
5
89
100
AcDbEntity
8
0
6
CONTINUOUS
62
7
370
-1
100
AcDbLine
10
13.5531528562
20
32.347273716
11
13.5476674554
21
32.3572427689
0
LINE
5
8A
100
AcDbEntity
8
0
6
CONTINUOUS
62
7
370
-1
100
AcDbLine
10
13.5476674554
20
32.3572427689
11
13.5422617558
21
32.3672486146
0
LINE
5
8B
100
AcDbEntity
8
0
6
CONTINUOUS
62
7
370
-1
100
AcDbLine
10
13.5422617558
20
32.3672486146
11
13.5256060032
21
32.3985459999
0
LINE
5
8C
100
AcDbEntity
8
0
6
CONTINUOUS
62
7
370
-1
100
AcDbLine
10
13.9778404865
20
30.8873184912
11
13.9719497338
21
30.8775834683
0
LINE
5
8D
100
AcDbEntity
8
0
6
CONTINUOUS
62
7
370
-1
100
AcDbLine
10
13.9719497338
20
30.8775834683
11
13.9659872671
21
30.8678990723
0
LWPOLYLINE
5
8E
100
AcDbEntity
8
0
6
CONTINUOUS
62
7
370
-1
100
AcDbPolyline
90
22
70
0
43
0
10
13.9599530862
20
30.8582653032
10
13.9454666798
20
30.8349034508
10
13.9297156747
20
30.8124283239
10
13.9127000709
20
30.7908399226
10
13.8945509641
20
30.7698297891
10
13.8751372587
20
30.7497063811
10
13.8540656672
20
30.7313950719
10
13.8311293866
20
30.7148630437
10
13.8065352201
20
30.7001431142
10
13.7805102896
20
30.6882591095
10
13.752707333
20
30.6794066168
10
13.7234736125
20
30.6733900488
10
13.6940780365
20
30.6706464701
10
13.6645982668
20
30.6715722174
10
13.6349566416
20
30.6757709539
10
13.6061890836
20
30.6824907334
10
13.5786572782
20
30.6918028256
10
13.55199954
20
30.7036359607
10
13.5261667355
20
30.7170243829
10
13.5011424868
20
30.7316461737
10
13.4769431716
20
30.7478232515
10
13.4535687902
20
30.7655556164
0
LINE
5
8F
100
AcDbEntity
8
0
6
CONTINUOUS
62
7
370
-1
100
AcDbLine
10
13.9659872671
20
30.8678990723
11
13.9599530862
21
30.8582653032
0
LINE
5
90
100
AcDbEntity
8
0
6
CONTINUOUS
62
7
370
-1
100
AcDbLine
10
15.0298549844
20
31.9850863802
11
15.0412311379
21
31.9848523501
0
LINE
5
91
100
AcDbEntity
8
0
6
CONTINUOUS
62
7
370
-1
100
AcDbLine
10
15.0412311379
20
31.9848523501
11
15.0525993042
21
31.9845309004
0
LINE
5
92
100
AcDbEntity
8
0
6
CONTINUOUS
62
7
370
-1
100
AcDbLine
10
15.0525993042
20
31.9845309004
11
15.0880566837
21
31.9833051816
0
LWPOLYLINE
5
93
100
AcDbEntity
8
0
6
CONTINUOUS
62
7
370
-1
100
AcDbPolyline
90
24
70
0
43
0
10
15.0880566837
20
31.9833051816
10
15.1120995356
20
31.9813803831
10
15.1360880392
20
31.9783476355
10
15.1601676871
20
31.9743885623
10
15.1841929866
20
31.96932154
10
15.20772746
20
31.9626016981
10
15.230744447
20
31.9542314661
10
15.2532706079
20
31.9442084145
10
15.2749494465
20
31.9319803837
10
15.2960334028
20
31.917223627
10
15.3162700367
20
31.9002618911
10
15.334545532
20
31.881514257
10
15.3505962312
20
31.8607588278
10
15.3646857917
20
31.8382175003
10
15.3764913689
20
31.8149750464
10
15.3857421919
20
31.7912613823
10
15.3927090316
20
31.7668465918
10
15.3978813564
20
31.7421256974
10
15.4012285763
20
31.7170906318
10
15.4027812813
20
31.6917494624
10
15.4031207099
20
31.6665214131
10
15.4024406082
20
31.6415462252
10
15.40054723
20
31.6166841575
10
15.3974405754
20
31.59193521
0
LINE
5
94
100
AcDbEntity
8
0
6
CONTINUOUS
62
7
370
-1
100
AcDbLine
10
14.8207460286
20
31.1325120089
11
14.8262314294
21
31.122542956
0
LINE
5
95
100
AcDbEntity
8
0
6
CONTINUOUS
62
7
370
-1
100
AcDbLine
10
14.8262314294
20
31.122542956
11
14.8316371289
21
31.1125371103
0
LINE
5
96
100
AcDbEntity
8
0
6
CONTINUOUS
62
7
370
-1
100
AcDbLine
10
14.8316371289
20
31.1125371103
11
14.8482088369
21
31.0814042617
0
LWPOLYLINE
5
97
100
AcDbEntity
8
0
6
CONTINUOUS
62
7
370
-1
100
AcDbPolyline
90
24
70
0
43
0
10
14.8482088369
20
31.0814042617
10
14.8584933935
20
31.0597904641
10
14.8678167969
20
31.037653079
10
14.8764099476
20
31.0149485219
10
14.8840419452
20
30.9917203773
10
14.8900200887
20
30.9680993987
10
14.8943316608
20
30.9441329956
10
14.8969893788
20
30.9197737585
10
14.8973386944
20
30.8950102131
10
14.8952322409
20
30.8694419716
10
14.8908173851
20
30.8434694218
10
14.8838816788
20
30.8182822526
10
14.874117694
20
30.7940154667
10
14.8618328588
20
30.7705340615
10
14.8477370092
20
30.7486227178
10
14.8318628134
20
30.7285952189
10
14.8141776032
20
30.7101377817
10
14.7952932105
20
30.6930937369
10
14.7751901631
20
30.6775071362
10
14.7538879332
20
30.663333928
10
14.7320567695
20
30.650285289
10
14.7099200879
20
30.6382649448
10
14.6872544725
20
30.6273691698
10
14.6640599232
20
30.617597964
0
LWPOLYLINE
5
98
100
AcDbEntity
8
0
6
CONTINUOUS
62
7
370
-1
100
AcDbPolyline
90
10
70
0
43
0
10
14.4174119781
20
30.3431538806
10
14.4157169026
20
30.3238552743
10
14.4135917427
20
30.3049502649
10
14.4110364984
20
30.2864388523
10
14.40806768
20
30.2682995257
10
14.4046687773
20
30.250553796
10
14.4007902593
20
30.2332661956
10
14.3964156157
20
30.2164582353
10
14.3915613568
20
30.2001084042
10
14.3862274827
20
30.1842167024
0
LWPOLYLINE
5
99
100
AcDbEntity
8
0
6
CONTINUOUS
62
7
370
-1
100
AcDbPolyline
90
10
70
0
43
0
10
14.1219774554
20
30.325760123
10
14.1163070155
20
30.3072356636
10
14.110297723
20
30.2891856196
10
14.1039495778
20
30.2716099909
10
14.0972742572
20
30.2544843042
10
14.0902600839
20
30.2378330329
10
14.0828720266
20
30.2217295973
10
14.075098408
20
30.2061984707
10
14.0669509054
20
30.1912151799
10
14.0584295186
20
30.1767797247
0
LWPOLYLINE
5
9A
100
AcDbEntity
8
0
6
CONTINUOUS
62
7
370
-1
100
AcDbPolyline
90
10
70
0
43
0
10
13.8293825203
20
30.3701707519
10
13.8199845414
20
30.3532300471
10
13.8103537512
20
30.336823842
10
13.8004901496
20
30.3209521366
10
13.7904000702
20
30.3055885645
10
13.7800771795
20
30.290759492
10
13.7695024765
20
30.2765440186
10
13.7586696273
20
30.2629685106
10
13.7475849658
20
30.2500066016
10
13.7362484919
20
30.2376582917
0
LWPOLYLINE
5
9B
100
AcDbEntity
8
0
6
CONTINUOUS
62
7
370
-1
100
AcDbPolyline
90
10
70
0
43
0
10
13.5524149755
20
30.4744448097
10
13.5397001944
20
30.4598282497
10
13.5268688182
20
30.4457829134
10
13.5139208469
20
30.4323088009
10
13.5008569937
20
30.4193788051
10
13.4876765454
20
30.4070200331
10
13.4743773618
20
30.3953138063
10
13.4609587296
20
30.3842872317
10
13.4474213622
20
30.3739132023
10
13.4337652594
20
30.364191718
0
LWPOLYLINE
5
9C
100
AcDbEntity
8
0
6
CONTINUOUS
62
7
370
-1
100
AcDbPolyline
90
10
70
0
43
0
10
13.3031796317
20
30.6340250197
10
13.2877037454
20
30.6223714182
10
13.272232576
20
30.6113007993
10
13.2567661233
20
30.6008131632
10
13.2412994494
20
30.5908818466
10
13.2258374924
20
30.5815335127
10
13.2103950665
20
30.5728481508
10
13.1949771098
20
30.5648524238
10
13.1795786843
20
30.5575196688
10
13.1641997899
20
30.5508498857
0
LWPOLYLINE
5
9D
100
AcDbEntity
8
0
6
CONTINUOUS
62
7
370
-1
100
AcDbPolyline
90
10
70
0
43
0
10
13.0925692695
20
30.841936961
10
13.0750086484
20
30.8337556363
10
13.05757385
20
30.826143574
10
13.0402648743
20
30.8191007742
10
13.0230713476
20
30.812602183
10
13.0060036435
20
30.8066728543
10
12.9890928833
20
30.8013879492
10
12.9723494409
20
30.7967725215
10
12.9557629424
20
30.7928015175
10
12.9393333879
20
30.7894749371
0
LWPOLYLINE
5
9E
100
AcDbEntity
8
0
6
CONTINUOUS
62
7
370
-1
100
AcDbPolyline
90
10
70
0
43
0
10
15.4441103125
20
32.3906918409
10
15.4629881849
20
32.3950433256
10
15.4816246279
20
32.3988641476
10
15.5000196414
20
32.402154307
10
15.5181885814
20
32.4049361531
10
15.536116092
20
32.4071873365
10
15.553756105
20
32.408840809
10
15.5710932644
20
32.4098742211
10
15.5881429263
20
32.4103099223
10
15.6049050906
20
32.4101479125
0
LWPOLYLINE
5
9F
100
AcDbEntity
8
0
6
CONTINUOUS
62
7
370
-1
100
AcDbPolyline
90
10
70
0
43
0
10
15.5519470472
20
32.1150918796
10
15.5713171174
20
32.1154233436
10
15.5903407029
20
32.1152859371
10
15.6090178038
20
32.1146796603
10
15.6273680872
20
32.1136231813
10
15.6453718861
20
32.112097832
10
15.6629701987
20
32.1100476072
10
15.6801433581
20
32.1074538386
10
15.6969110313
20
32.1043351946
10
15.7132732183
20
32.1006916752
0
LWPOLYLINE
5
A0
100
AcDbEntity
8
0
6
CONTINUOUS
62
7
370
-1
100
AcDbPolyline
90
10
70
0
43
0
10
15.6001268366
20
31.8230939209
10
15.6191425395
20
31.8193908776
10
15.6377218456
20
31.8153012479
10
15.655864755
20
31.810825032
10
15.6735943864
20
31.8059764012
10
15.6908876211
20
31.8007411842
10
15.7076751027
20
31.7950768668
10
15.7239337125
20
31.7889692777
10
15.7396865692
20
31.7824325882
10
15.754933673
20
31.7754667985
0
LWPOLYLINE
5
A1
100
AcDbEntity
8
0
6
CONTINUOUS
62
7
370
-1
100
AcDbPolyline
90
10
70
0
43
0
10
15.5865439927
20
31.5274596767
10
15.6043742509
20
31.5198839668
10
15.6216972728
20
31.5120208504
10
15.6385130584
20
31.5038703276
10
15.6548471678
20
31.4954414534
10
15.670674041
20
31.4867251727
10
15.685916998
20
31.4776943206
10
15.700550479
20
31.4683398419
10
15.7146000439
20
31.4586707917
10
15.7280656927
20
31.4486871701
0
LWPOLYLINE
5
A2
100
AcDbEntity
8
0
6
CONTINUOUS
62
7
370
-1
100
AcDbPolyline
90
10
70
0
43
0
10
15.511792151
20
31.2411097821
10
15.5276576965
20
31.2299925005
10
15.542967335
20
31.2186995533
10
15.5577210664
20
31.2072309405
10
15.5719457749
20
31.1955902051
10
15.5856145762
20
31.1837738042
10
15.5986468183
20
31.1717711088
10
15.6110156172
20
31.1595785762
10
15.6227478568
20
31.1471997492
10
15.6338435372
20
31.1346346278
0
LWPOLYLINE
5
A3
100
AcDbEntity
8
0
6
CONTINUOUS
62
7
370
-1
100
AcDbPolyline
90
10
70
0
43
0
10
15.3791383255
20
30.9765591015
10
15.392345758
20
30.9623861268
10
15.4049729085
20
30.9481569047
10
15.4170197768
20
30.9338714354
10
15.4285133962
20
30.9195275949
10
15.4394267335
20
30.905127507
10
15.4496786892
20
30.8906775439
10
15.4592422301
20
30.8761798294
10
15.4681443893
20
30.8616322397
10
15.4763851668
20
30.8470347747
0
LWPOLYLINE
5
A4
100
AcDbEntity
8
0
6
CONTINUOUS
62
7
370
-1
100
AcDbPolyline
90
10
70
0
43
0
10
15.1943801252
20
30.7453697691
10
15.2043522164
20
30.7287605283
10
15.2137450117
20
30.7122169167
10
15.222558511
20
30.6957389344
10
15.2308187151
20
30.6793188833
10
15.2384996232
20
30.6629644615
10
15.2455232328
20
30.6466987633
10
15.251863543
20
30.6305294868
10
15.2575465547
20
30.6144489338
10
15.2625722679
20
30.5984571044
0
LWPOLYLINE
5
A5
100
AcDbEntity
8
0
6
CONTINUOUS
62
7
370
-1
100
AcDbPolyline
90
10
70
0
43
0
10
14.9655923698
20
30.5576458682
10
14.9718932916
20
30.5393262648
10
14.9776412215
20
30.5211912989
10
14.9828361595
20
30.5032409705
10
14.9875019377
20
30.4854623439
10
14.9916147241
20
30.4678683548
10
14.9951030221
20
30.4504978106
10
14.9979429997
20
30.4333636469
10
15.000158489
20
30.4164529281
10
15.00174949
20
30.399765654
0
LWPOLYLINE
5
A6
100
AcDbEntity
8
0
6
CONTINUOUS
62
7
370
-1
100
AcDbPolyline
90
10
70
0
43
0
10
14.7027741821
20
30.421591834
10
14.7051285539
20
30.4023625225
10
14.7069804063
20
30.3834287873
10
14.7083297394
20
30.3647906283
10
14.7091971749
20
30.3464304375
10
14.7095620909
20
30.328365823
10
14.7093626221
20
30.3106496089
10
14.7085781464
20
30.2932994033
10
14.7072292858
20
30.2762975981
10
14.7053160402
20
30.2596441933
0
LWPOLYLINE
5
A7
100
AcDbEntity
8
0
6
CONTINUOUS
62
7
370
-1
100
AcDbPolyline
90
31
70
0
43
0
10
14.4636902378
20
31.117892325
10
14.4727092992
20
31.1387003389
10
14.481678347
20
31.1583158509
10
14.4905973814
20
31.1767388608
10
14.4991389781
20
31.1937540321
10
14.5076305613
20
31.2095767013
10
14.5170544034
20
31.2248528783
10
14.5279656593
20
31.2402800303
10
14.5398091741
20
31.2551606899
10
14.5519017558
20
31.2680484649
10
14.5638486919
20
31.278404658
10
14.5760446949
20
31.2867679665
10
14.5889907107
20
31.2933080899
10
14.6030985541
20
31.2981723785
10
14.6179564104
20
31.3012134819
10
14.6328297812
20
31.3021590494
10
14.647675795
20
31.3006992845
10
14.6625373233
20
31.2971439835
10
14.6768084834
20
31.2921501846
10
14.6900807765
20
31.2859973871
10
14.7027627013
20
31.2784060917
10
14.7154738716
20
31.2691948375
10
14.7286527888
20
31.2579987309
10
14.7418609515
20
31.2451826656
10
14.7544024687
20
31.2316598621
10
14.7658051618
20
31.2179197634
10
14.7765412094
20
31.2034729265
10
14.7873312554
20
31.1877642434
10
14.7984155146
20
31.1706086781
10
14.8095537724
20
31.1521912666
10
14.8207460286
20
31.1325120089
0
LWPOLYLINE
5
A8
100
AcDbEntity
8
0
6
CONTINUOUS
62
7
370
-1
100
AcDbPolyline
90
31
70
0
43
0
10
14.5872473113
20
32.2905576903
10
14.5647175119
20
32.2879644196
10
14.5432454563
20
32.2859240869
10
14.5228311446
20
32.2844366923
10
14.5038247756
20
32.2833263464
10
14.4858761505
20
32.2827689385
10
14.4679346721
20
32.2832921367
10
14.4491187387
20
32.2850279855
10
14.430309952
20
32.2878444403
10
14.4131025205
20
32.2918730358
10
14.3981603262
20
32.2970412894
10
14.3848194871
20
32.3034216836
10
14.3726825662
20
32.3113632005
10
14.361416047
20
32.321148807
10
14.351353446
20
32.3324955362
10
14.3430978752
20
32.3449034695
10
14.3369390618
20
32.358490377
10
14.3325872786
20
32.3731384885
10
14.3297764553
20
32.3879945752
10
14.3284687876
20
32.4025651169
10
14.3287020799
20
32.4173436337
10
14.3303236749
20
32.4329574571
10
14.333430329
20
32.4499687876
10
14.3379252858
20
32.4678154247
10
14.3433656186
20
32.4854380988
10
14.3495635465
20
32.5021831701
10
14.3567068505
20
32.5187042785
10
14.3649159461
20
32.535903074
10
14.3742309718
20
32.5540801067
10
14.3846117892
20
32.5729348266
10
14.3960583982
20
32.5924672337
0
LWPOLYLINE
5
A9
100
AcDbEntity
8
0
6
CONTINUOUS
62
7
370
-1
100
AcDbPolyline
90
31
70
0
43
0
10
14.8639881067
20
31.6685571528
10
14.8504773687
20
31.6867718961
10
14.837974361
20
31.7043470753
10
14.8264790836
20
31.7212826906
10
14.8160143113
20
31.737187516
10
14.8065572694
20
31.7524527774
10
14.7980396331
20
31.7682521525
10
14.7901349556
20
31.7854151533
10
14.7831696837
20
31.8031122678
10
14.778054834
20
31.8200286383
10
14.7750595757
20
31.835553085
10
14.7739147396
20
31.8502967876
10
14.7747238345
20
31.8647784279
10
14.7775651587
20
31.879428323
10
14.782360414
20
31.8938161557
10
14.788978214
20
31.9071696564
10
14.7976654144
20
31.919296799
10
14.8081751595
20
31.9303896096
10
14.8196354963
20
31.9402518973
10
14.8316001217
20
31.9486696416
10
14.8445153388
20
31.9558568629
10
14.8588481041
20
31.9622594322
10
14.8751336755
20
31.968074656
10
14.892836795
20
31.9731052278
10
14.9108186448
20
31.9772050985
10
14.928419266
20
31.9802100711
10
14.9462986175
20
31.9822843426
10
14.9652977591
20
31.983774455
10
14.9856970441
20
31.9847959224
10
15.0072161192
20
31.9852332308
10
15.0298549844
20
31.9850863802
0
LWPOLYLINE
5
AA
100
AcDbEntity
8
0
6
CONTINUOUS
62
7
370
-1
100
AcDbPolyline
90
10
70
0
43
0
10
15.00174949
20
33.0800200709
10
15.0001590712
20
33.0633364254
10
14.9979440824
20
33.0464284278
10
14.9951045236
20
33.0292960779
10
14.9916166476
20
33.0119264399
10
14.9875042016
20
32.9943324496
10
14.9828384266
20
32.9765529153
10
14.9776430699
20
32.9586007731
10
14.9718943843
20
32.9404630869
10
14.9655923698
20
32.9221398567
0
LWPOLYLINE
5
AB
100
AcDbEntity
8
0
6
CONTINUOUS
62
7
370
-1
100
AcDbPolyline
90
10
70
0
43
0
10
15.2625722679
20
32.8813286205
10
15.2575478786
20
32.8653402193
10
15.2518659223
20
32.8492622241
10
15.2455263987
20
32.8330946347
10
15.2385033904
20
32.8168297351
10
15.2308228149
20
32.8004752413
10
15.2225624253
20
32.7840543017
10
15.2137481394
20
32.7675746322
10
15.2043540393
20
32.7510285169
10
15.1943801252
20
32.7344159558
0
LWPOLYLINE
5
AC
100
AcDbEntity
8
0
6
CONTINUOUS
62
7
370
-1
100
AcDbPolyline
90
10
70
0
43
0
10
15.4763851668
20
32.6327509502
10
15.468146397
20
32.6181565633
10
15.4592458019
20
32.6036112559
10
15.4496833813
20
32.5891150282
10
15.4394321798
20
32.5746657212
10
15.4285191528
20
32.5602654938
10
15.4170251673
20
32.5459208227
10
15.4049771787
20
32.5316338667
10
15.3923482314
20
32.5174024669
10
15.3791383255
20
32.5032266234
0
LWPOLYLINE
5
AD
100
AcDbEntity
8
0
6
CONTINUOUS
62
7
370
-1
100
AcDbPolyline
90
7
70
0
43
0
10
14.2646293386
20
30.7782132853
10
14.3020396542
20
30.8305472223
10
14.3377565702
20
30.8845928538
10
14.3717800865
20
30.9403501798
10
14.4041102032
20
30.9978192004
10
14.4347469203
20
31.0569999154
10
14.4636902378
20
31.117892325
0
LWPOLYLINE
5
AE
100
AcDbEntity
8
0
6
CONTINUOUS
62
7
370
-1
100
AcDbPolyline
90
10
70
0
43
0
10
15.6338435372
20
32.3451510971
10
15.6227504607
20
32.3325885691
10
15.6110202254
20
32.3202116494
10
15.5986528315
20
32.3080203381
10
15.5856214634
20
32.2960181278
10
15.5719529367
20
32.2842015258
10
15.5577276975
20
32.2725600541
10
15.5429725611
20
32.26109022
10
15.5276607123
20
32.2497955163
10
15.511792151
20
32.2386759428
0
LWPOLYLINE
5
AF
100
AcDbEntity
8
0
6
CONTINUOUS
62
7
370
-1
100
AcDbPolyline
90
10
70
0
43
0
10
15.7280656927
20
32.0310985548
10
15.7146031301
20
32.0211169285
10
15.7005559223
20
32.0114493273
10
15.6859240694
20
32.0020957511
10
15.6706820682
20
31.9930651916
10
15.6548554219
20
31.9843486572
10
15.6385206402
20
31.9759191732
10
15.6217032264
20
31.9677677479
10
15.6043776772
20
31.9599033729
10
15.5865439927
20
31.9523260482
0
LWPOLYLINE
5
B0
100
AcDbEntity
8
0
6
CONTINUOUS
62
7
370
-1
100
AcDbPolyline
90
10
70
0
43
0
10
15.754933673
20
31.7043189264
10
15.7396900028
20
31.6973544467
10
15.7239397529
20
31.6908186845
10
15.7076829233
20
31.6847116397
10
15.6908964375
20
31.6790474099
10
15.6736033719
20
31.6738118975
10
15.6558729561
20
31.6689628099
10
15.6377282666
20
31.6644860497
10
15.6191462267
20
31.6603957144
10
15.6001268366
20
31.656691804
0
LWPOLYLINE
5
B1
100
AcDbEntity
8
0
6
CONTINUOUS
62
7
370
-1
100
AcDbPolyline
90
10
70
0
43
0
10
12.6606256664
20
32.1006916752
10
12.6769842226
20
32.104334627
10
12.6937491531
20
32.1074529061
10
12.710920458
20
32.1100465124
10
12.7285177784
20
32.1120968586
10
12.7465214732
20
32.113622532
10
12.7648726189
20
32.1146792946
10
12.7835515742
20
32.1152857337
10
12.8025779805
20
32.1154232621
10
12.8219518375
20
32.1150918796
0
LWPOLYLINE
5
B2
100
AcDbEntity
8
0
6
CONTINUOUS
62
7
370
-1
100
AcDbPolyline
90
10
70
0
43
0
10
12.7689937942
20
32.4101479125
10
12.7857522889
20
32.410310122
10
12.8027991922
20
32.4098746342
10
12.8201345039
20
32.4088414489
10
12.8377735716
20
32.4071883014
10
12.8557010478
20
32.4049374566
10
12.8738708902
20
32.4021557087
10
12.8922677514
20
32.3988653225
10
12.9109069787
20
32.3950440332
10
12.9297885722
20
32.3906918409
0
LWPOLYLINE
5
B3
100
AcDbEntity
8
0
6
CONTINUOUS
62
7
370
-1
100
AcDbPolyline
90
7
70
0
43
0
10
14.9809484384
20
32.2880054145
10
14.9169207617
20
32.2942367297
10
14.8522574138
20
32.2981456705
10
14.7869583949
20
32.299732237
10
14.7210237048
20
32.2989964291
10
14.6544533436
20
32.2959382469
10
14.5872473113
20
32.2905576903
0
LWPOLYLINE
5
B4
100
AcDbEntity
8
0
6
CONTINUOUS
62
7
370
-1
100
AcDbPolyline
90
10
70
0
43
0
10
12.9393333879
20
32.6903107878
10
12.9557593946
20
32.6869851657
10
12.972343239
20
32.6830149439
10
12.9890849213
20
32.6784001222
10
13.0059948244
20
32.6731157316
10
13.0230625653
20
32.6671867412
10
13.0402569951
20
32.6606880585
10
13.057567731
20
32.6536446526
10
13.0750051558
20
32.6460315544
10
13.0925692695
20
32.6378487639
0
LWPOLYLINE
5
B5
100
AcDbEntity
8
0
6
CONTINUOUS
62
7
370
-1
100
AcDbPolyline
90
10
70
0
43
0
10
13.1641997899
20
32.9289358392
10
13.1795754132
20
32.9222677312
10
13.1949714053
20
32.914936293
10
13.2103877663
20
32.9069415248
10
13.2258294609
20
32.8982568443
10
13.2412915242
20
32.8889088337
10
13.2567590624
20
32.8789772398
10
13.2722271107
20
32.8684886449
10
13.2877006338
20
32.8574164667
10
13.3031796317
20
32.8457607052
0
LWPOLYLINE
5
B6
100
AcDbEntity
8
0
6
CONTINUOUS
62
7
370
-1
100
AcDbPolyline
90
10
70
0
43
0
10
13.4337652594
20
33.1155940069
10
13.4474185108
20
33.1058748411
10
13.4609537719
20
33.0955026057
10
13.4743710426
20
33.0844773007
10
13.4876696525
20
33.0727718925
10
13.500850272
20
33.0604134146
10
13.5139149129
20
33.0474829678
10
13.5268642457
20
33.0340075858
10
13.5396975999
20
33.0199602349
10
13.5524149755
20
33.0053409152
0
LWPOLYLINE
5
B7
100
AcDbEntity
8
0
6
CONTINUOUS
62
7
370
-1
100
AcDbPolyline
90
10
70
0
43
0
10
13.7362484919
20
33.2421274332
10
13.7475826588
20
33.2297819839
10
13.758665633
20
33.2168222677
10
13.7694974143
20
33.2032482846
10
13.7800717264
20
33.1890337312
10
13.7903948458
20
33.1742049108
10
13.8004856018
20
33.1588407338
10
13.8103502712
20
33.1429675035
10
13.8199825774
20
33.1265589166
10
13.8293825203
20
33.109614973
0
LWPOLYLINE
5
B8
100
AcDbEntity
8
0
6
CONTINUOUS
62
7
370
-1
100
AcDbPolyline
90
10
70
0
43
0
10
14.0584295186
20
33.3030060002
10
14.0669492436
20
33.2885738229
10
14.0750955516
20
33.2735930277
10
14.0828684428
20
33.2580636147
10
14.090256309
20
33.2419611602
10
14.0972707583
20
33.225310088
10
14.1039466151
20
33.2081836689
10
14.1102954876
20
33.1906063267
10
14.1163057677
20
33.1725536377
10
14.1219774554
20
33.1540256019
0
LWPOLYLINE
5
B9
100
AcDbEntity
8
0
6
CONTINUOUS
62
7
370
-1
100
AcDbPolyline
90
7
70
0
43
0
10
15.0586283346
20
31.3263258373
10
15.0320109735
20
31.3848910895
10
15.0030645416
20
31.4428456619
10
14.971789039
20
31.5001895544
10
14.9381844657
20
31.556922767
10
14.9022508216
20
31.6130452998
10
14.8639881067
20
31.6685571528
0
LWPOLYLINE
5
BA
100
AcDbEntity
8
0
6
CONTINUOUS
62
7
370
-1
100
AcDbPolyline
90
10
70
0
43
0
10
14.3862274827
20
33.2955690225
10
14.3915604128
20
33.2796808724
10
14.3964140221
20
33.2633337308
10
14.4007883104
20
33.2465275978
10
14.4046668455
20
33.2292409969
10
14.4080660596
20
33.2114954045
10
14.4110352502
20
33.1933552501
10
14.4135908497
20
33.1748420102
10
14.4157164257
20
33.1559342082
10
14.4174119781
20
33.1366318443
0
LWPOLYLINE
5
BB
100
AcDbEntity
8
0
6
CONTINUOUS
62
7
370
-1
100
AcDbPolyline
90
10
70
0
43
0
10
14.7053160402
20
33.2201415316
10
14.7072291009
20
33.2034917972
10
14.7085778853
20
33.1864927578
10
14.7093623934
20
33.1691444134
10
14.7095620867
20
33.1514291734
10
14.7091975037
20
33.1333646285
10
14.7083302602
20
33.1150035505
10
14.7069808947
20
33.0963635303
10
14.7051288687
20
33.0774269771
10
14.7027741821
20
33.0581938909
0
LWPOLYLINE
5
BC
100
AcDbEntity
8
0
6
CONTINUOUS
62
7
370
-1
100
AcDbPolyline
90
40
70
0
43
0
10
15.3377750635
20
31.3364320345
10
15.3321122578
20
31.3205301745
10
15.3262975147
20
31.3052219377
10
15.3203308342
20
31.290507324
10
15.3141819566
20
31.2763027053
10
15.3078811415
20
31.2626917097
10
15.3015191679
20
31.2499252215
10
15.2951736817
20
31.2381593447
10
15.2887670369
20
31.2272379752
10
15.282157075
20
31.2169436854
10
15.2753329478
20
31.2071901474
10
15.2683055035
20
31.1980636891
10
15.2609651283
20
31.1896058665
10
15.2532325585
20
31.18172376
10
15.2451870578
20
31.1745102891
10
15.2369568034
20
31.1682857689
10
15.2285511433
20
31.1630940773
10
15.2199607295
20
31.1588913363
10
15.2112856954
20
31.1558662271
10
15.2025012266
20
31.1540578425
10
15.1936321374
20
31.1534270897
10
15.1848530041
20
31.1540453716
10
15.1761712409
20
31.1559841687
10
15.1675794336
20
31.1591720004
10
15.159229915
20
31.1634658281
10
15.1511746958
20
31.1688780506
10
15.1433617653
20
31.175396269
10
15.1357874248
20
31.1828402481
10
15.1284506468
20
31.1912340631
10
15.1213524588
20
31.2005536389
10
15.1144922446
20
31.2105465139
10
15.1078985319
20
31.2211929669
10
15.1015427929
20
31.2325127193
10
15.0953388288
20
31.2443124736
10
15.0893505577
20
31.2564714494
10
15.0835140615
20
31.2691104272
10
15.0775513864
20
31.2823984505
10
15.0713698813
20
31.2963918672
10
15.0650621973
20
31.3110343295
10
15.0586283346
20
31.3263258373
0
LWPOLYLINE
5
BD
100
AcDbEntity
8
0
6
CONTINUOUS
62
7
370
-1
100
AcDbPolyline
90
40
70
0
43
0
10
13.9609439583
20
32.9382674997
10
13.977399312
20
32.9412756206
10
13.9933364615
20
32.943864368
10
14.008755407
20
32.9460337419
10
14.0237119955
20
32.9477910295
10
14.0381503799
20
32.9491289436
10
14.0519030187
20
32.9500256223
10
14.0647365971
20
32.9504922629
10
14.0768844299
20
32.9505176682
10
14.0888789205
20
32.9500463843
10
14.1010060874
20
32.9490999227
10
14.1129799122
20
32.947656772
10
14.1244747422
20
32.9455969441
10
14.1354881466
20
32.9428941686
10
14.1460225562
20
32.9395747159
10
14.1557596109
20
32.9355974098
10
14.1646531967
20
32.930962304
10
14.1727494277
20
32.9256693447
10
14.1798682859
20
32.919677194
10
14.1860127254
20
32.9129542313
10
14.1911797921
20
32.9055320772
10
14.1951806063
20
32.8974642567
10
14.1979593381
20
32.8886988981
10
14.1995718174
20
32.879287873
10
14.1999966534
20
32.869440321
10
14.1991332017
20
32.8591034943
10
14.1970821069
20
32.8483301407
10
14.1941239117
20
32.8374876436
10
14.1902274887
20
32.8266389838
10
14.1854239653
20
32.8157211805
10
14.1800872669
20
32.8049126749
10
14.1743845499
20
32.7944457792
10
14.1681486578
20
32.7840881812
10
14.1612520465
20
32.7733213856
10
14.1535215581
20
32.761880636
10
14.1451303505
20
32.7500306887
10
14.1364703526
20
32.7380473181
10
14.1276722074
20
32.7260224487
10
14.118605272
20
32.7138641559
10
14.1092695462
20
32.7015724396
0
LWPOLYLINE
5
BE
100
AcDbEntity
8
0
6
CONTINUOUS
62
7
370
-1
100
AcDbPolyline
90
40
70
0
43
0
10
15.1117695794
20
32.5348066717
10
15.1225804767
20
32.5220868685
10
15.1327737554
20
32.5096017369
10
15.1423494154
20
32.4973512768
10
15.1513439353
20
32.4852873142
10
15.1597208365
20
32.4734580231
10
15.1673706838
20
32.4620079261
10
15.1741795665
20
32.4511586205
10
15.1802613952
20
32.440688509
10
15.1858484659
20
32.4300773218
10
15.1911139632
20
32.419062697
10
15.1958847026
20
32.4079069966
10
15.1998734266
20
32.3968770372
10
15.203045749
20
32.3859829029
10
15.2054360561
20
32.3752145096
10
15.2068602488
20
32.3648084211
10
15.2072995284
20
32.3548005737
10
15.2067726936
20
32.3451550311
10
15.2051520426
20
32.3360005478
10
15.2024123246
20
32.3273152744
10
15.1985787904
20
32.3191210602
10
15.1935994895
20
32.3116122073
10
15.18739773
20
32.304810745
10
15.1800502039
20
32.298694644
10
15.1717350361
20
32.2933921185
10
15.1623586989
20
32.2889668955
10
15.15201472
20
32.2853552481
10
15.1411618075
20
32.282494209
10
15.1298460369
20
32.2804408576
10
15.1180213326
20
32.2791381145
10
15.1060081761
20
32.2783517754
10
15.0940753728
20
32.2780532154
10
15.0819541171
20
32.2782710594
10
15.0691584742
20
32.2788569775
10
15.0553895093
20
32.279828192
10
15.0409461572
20
32.2811674807
10
15.026239287
20
32.2826748469
10
15.0114058554
20
32.2842836252
10
14.9963089059
20
32.2860604811
10
14.9809484384
20
32.2880054145
0
ARC
5
BF
100
AcDbEntity
8
0
6
CONTINUOUS
62
7
370
-1
100
AcDbCircle
10
8.3606559108
20
33.5868345926
40
3
100
AcDbArc
50
334.923227994
51
338.375413124
0
ARC
5
C0
100
AcDbEntity
8
0
6
CONTINUOUS
62
7
370
-1
100
AcDbCircle
10
8.3606559108
20
33.5868345926
40
3
100
AcDbArc
50
201.624586876
51
205.076772006
0
ARC
5
C1
100
AcDbEntity
8
0
6
CONTINUOUS
62
7
370
-1
100
AcDbCircle
10
8.3606559108
20
33.5868345926
40
2.05
100
AcDbArc
50
195.36855736
51
344.63144264
0
ARC
5
C2
100
AcDbEntity
8
0
6
CONTINUOUS
62
7
370
-1
100
AcDbCircle
10
8.3606559108
20
31.3368345926
40
0.1875
100
AcDbArc
50
210.536723982
51
329.463276018
0
CIRCLE
5
C3
100
AcDbEntity
8
0
6
CONTINUOUS
62
7
370
-1
100
AcDbCircle
10
8.3606559108
20
31.3368345926
40
0.046875
0
CIRCLE
5
C4
100
AcDbEntity
8
0
6
CONTINUOUS
62
7
370
-1
100
AcDbCircle
10
5.7614865784
20
32.4721105025
40
0.046875
0
CIRCLE
5
C5
100
AcDbEntity
8
0
6
CONTINUOUS
62
7
370
-1
100
AcDbCircle
10
6.2271784154
20
32.9663490631
40
0.046875
0
CIRCLE
5
C6
100
AcDbEntity
8
0
6
CONTINUOUS
62
7
370
-1
100
AcDbCircle
10
10.4941334062
20
32.9663490631
40
0.046875
0
CIRCLE
5
C7
100
AcDbEntity
8
0
6
CONTINUOUS
62
7
370
-1
100
AcDbCircle
10
10.9598252432
20
32.4721105025
40
0.046875
0
CIRCLE
5
C8
100
AcDbEntity
8
0
6
CONTINUOUS
62
7
370
-1
100
AcDbCircle
10
13.8405392809
20
31.5398928625
40
0.09375
0
ARC
5
C9
100
AcDbEntity
8
0
6
CONTINUOUS
62
7
370
-1
100
AcDbCircle
10
14.1818718008
20
30.3079018647
40
0.0625
100
AcDbArc
50
89.7968379592
51
163.397383344
0
ARC
5
CA
100
AcDbEntity
8
0
6
CONTINUOUS
62
7
370
-1
100
AcDbCircle
10
12.7622722831
20
31.5952588698
40
0.0625
100
AcDbArc
50
5.7968379592
51
79.3973833444
0
ARC
5
CB
100
AcDbEntity
8
0
6
CONTINUOUS
62
7
370
-1
100
AcDbCircle
10
12.7633337992
20
31.5851592183
40
0.0625
100
AcDbArc
50
292.602616656
51
6.2031620408
0
ARC
5
CC
100
AcDbEntity
8
0
6
CONTINUOUS
62
7
370
-1
100
AcDbCircle
10
12.8234759952
20
31.3022124325
40
0.0625
100
AcDbArc
50
17.7968379592
51
91.3973833444
0
ARC
5
CD
100
AcDbEntity
8
0
6
CONTINUOUS
62
7
370
-1
100
AcDbCircle
10
12.8266141503
20
31.2925541842
40
0.0625
100
AcDbArc
50
304.602616656
51
18.2031620408
0
ARC
5
CE
100
AcDbEntity
8
0
6
CONTINUOUS
62
7
370
-1
100
AcDbCircle
10
12.9442700396
20
31.0282947302
40
0.0625
100
AcDbArc
50
29.7968379592
51
103.397383344
0
ARC
5
CF
100
AcDbEntity
8
0
6
CONTINUOUS
62
7
370
-1
100
AcDbCircle
10
12.9493476812
20
31.019499997
40
0.0625
100
AcDbArc
50
316.602616656
51
30.2031620408
0
ARC
5
D0
100
AcDbEntity
8
0
6
CONTINUOUS
62
7
370
-1
100
AcDbCircle
10
13.1193751369
20
30.7854772809
40
0.0625
100
AcDbArc
50
41.7968379592
51
115.397383344
0
ARC
5
D1
100
AcDbEntity
8
0
6
CONTINUOUS
62
7
370
-1
100
AcDbCircle
10
13.1261703477
20
30.7779304348
40
0.0625
100
AcDbArc
50
328.602616656
51
42.2031620408
0
ARC
5
D2
100
AcDbEntity
8
0
6
CONTINUOUS
62
7
370
-1
100
AcDbCircle
10
13.3411383542
20
30.5843723723
40
0.0625
100
AcDbArc
50
53.7968379592
51
127.397383344
0
ARC
5
D3
100
AcDbEntity
8
0
6
CONTINUOUS
62
7
370
-1
100
AcDbCircle
10
13.3493541508
20
30.5784032467
40
0.0625
100
AcDbArc
50
340.602616656
51
54.2031620408
0
ARC
5
D4
100
AcDbEntity
8
0
6
CONTINUOUS
62
7
370
-1
100
AcDbCircle
10
13.5998675746
20
30.433769254
40
0.0625
100
AcDbArc
50
65.7968379592
51
139.397383344
0
ARC
5
D5
100
AcDbEntity
8
0
6
CONTINUOUS
62
7
370
-1
100
AcDbCircle
10
13.6091448875
20
30.4296387282
40
0.0625
100
AcDbArc
50
352.602616656
51
66.2031620408
0
ARC
5
D6
100
AcDbEntity
8
0
6
CONTINUOUS
62
7
370
-1
100
AcDbCircle
10
13.8842550899
20
30.3402500048
40
0.0625
100
AcDbArc
50
77.7968379592
51
151.397383344
0
ARC
5
D7
100
AcDbEntity
8
0
6
CONTINUOUS
62
7
370
-1
100
AcDbCircle
10
13.8941884557
20
30.3381386027
40
0.0625
100
AcDbArc
50
4.6026166556
51
78.2031620408
0
CIRCLE
5
D8
100
AcDbEntity
8
0
6
CONTINUOUS
62
7
370
-1
100
AcDbCircle
10
13.8405392809
20
31.5398928625
40
0.046875
0
ARC
5
D9
100
AcDbEntity
8
0
6
CONTINUOUS
62
7
370
-1
100
AcDbCircle
10
14.032903968
20
30.192541903
40
0.03
100
AcDbArc
50
264.314690665
51
328.30442481
0
ARC
5
DA
100
AcDbEntity
8
0
6
CONTINUOUS
62
7
370
-1
100
AcDbCircle
10
14.0159162993
20
30.1943273789
40
0.03
100
AcDbArc
50
199.69557519
51
263.685309335
0
ARC
5
DB
100
AcDbEntity
8
0
6
CONTINUOUS
62
7
370
-1
100
AcDbCircle
10
13.7145578769
20
30.258383089
40
0.03
100
AcDbArc
50
252.314690665
51
316.30442481
0
ARC
5
DC
100
AcDbEntity
8
0
6
CONTINUOUS
62
7
370
-1
100
AcDbCircle
10
13.6983126509
20
30.2636614829
40
0.03
100
AcDbArc
50
187.69557519
51
251.685309335
0
ARC
5
DD
100
AcDbEntity
8
0
6
CONTINUOUS
62
7
370
-1
100
AcDbCircle
10
13.4168575641
20
30.3889733612
40
0.03
100
AcDbArc
50
240.314690665
51
304.30442481
0
ARC
5
DE
100
AcDbEntity
8
0
6
CONTINUOUS
62
7
370
-1
100
AcDbCircle
10
13.402064775
20
30.3975139819
40
0.03
100
AcDbArc
50
175.69557519
51
239.685309335
0
ARC
5
DF
100
AcDbEntity
8
0
6
CONTINUOUS
62
7
370
-1
100
AcDbCircle
10
13.1528139616
20
30.578605298
40
0.03
100
AcDbArc
50
228.314690665
51
292.30442481
0
ARC
5
E0
100
AcDbEntity
8
0
6
CONTINUOUS
62
7
370
-1
100
AcDbCircle
10
13.1401201253
20
30.5900348795
40
0.03
100
AcDbArc
50
163.69557519
51
227.685309335
0
ARC
5
E1
100
AcDbEntity
8
0
6
CONTINUOUS
62
7
370
-1
100
AcDbCircle
10
12.933967042
20
30.8189910739
40
0.03
100
AcDbArc
50
216.314690665
51
280.30442481
0
ARC
5
E2
100
AcDbEntity
8
0
6
CONTINUOUS
62
7
370
-1
100
AcDbCircle
10
12.9239269401
20
30.8328100886
40
0.03
100
AcDbArc
50
151.69557519
51
215.685309335
0
ARC
5
E3
100
AcDbEntity
8
0
6
CONTINUOUS
62
7
370
-1
100
AcDbCircle
10
12.7698814657
20
31.0996246769
40
0.03
100
AcDbArc
50
204.314690665
51
268.30442481
0
ARC
5
E4
100
AcDbEntity
8
0
6
CONTINUOUS
62
7
370
-1
100
AcDbCircle
10
12.7629338989
20
31.1152291675
40
0.03
100
AcDbArc
50
139.69557519
51
203.685309335
0
ARC
5
E5
100
AcDbEntity
8
0
6
CONTINUOUS
62
7
370
-1
100
AcDbCircle
10
12.6677285599
20
31.4082410719
40
0.03
100
AcDbArc
50
192.314690665
51
256.30442481
0
ARC
5
E6
100
AcDbEntity
8
0
6
CONTINUOUS
62
7
370
-1
100
AcDbCircle
10
12.6641771701
20
31.4249490474
40
0.03
100
AcDbArc
50
127.69557519
51
191.685309335
0
ARC
5
E7
100
AcDbEntity
8
0
6
CONTINUOUS
62
7
370
-1
100
AcDbCircle
10
12.6319728966
20
31.7313522417
40
0.03
100
AcDbArc
50
180.314690665
51
244.30442481
0
ARC
5
E8
100
AcDbEntity
8
0
6
CONTINUOUS
62
7
370
-1
100
AcDbCircle
10
14.1818718008
20
33.1718838602
40
0.0625
100
AcDbArc
50
196.602616656
51
270.203162041
0
ARC
5
E9
100
AcDbEntity
8
0
6
CONTINUOUS
62
7
370
-1
100
AcDbCircle
10
13.8941884557
20
33.1416471222
40
0.0625
100
AcDbArc
50
281.796837959
51
355.397383344
0
ARC
5
EA
100
AcDbEntity
8
0
6
CONTINUOUS
62
7
370
-1
100
AcDbCircle
10
13.8842550899
20
33.1395357201
40
0.0625
100
AcDbArc
50
208.602616656
51
282.203162041
0
ARC
5
EB
100
AcDbEntity
8
0
6
CONTINUOUS
62
7
370
-1
100
AcDbCircle
10
13.6091448875
20
33.0501469967
40
0.0625
100
AcDbArc
50
293.796837959
51
7.3973833444
0
ARC
5
EC
100
AcDbEntity
8
0
6
CONTINUOUS
62
7
370
-1
100
AcDbCircle
10
13.5998675746
20
33.0460164709
40
0.0625
100
AcDbArc
50
220.602616656
51
294.203162041
0
ARC
5
ED
100
AcDbEntity
8
0
6
CONTINUOUS
62
7
370
-1
100
AcDbCircle
10
13.3493541508
20
32.9013824782
40
0.0625
100
AcDbArc
50
305.796837959
51
19.3973833444
0
ARC
5
EE
100
AcDbEntity
8
0
6
CONTINUOUS
62
7
370
-1
100
AcDbCircle
10
13.3411383542
20
32.8954133526
40
0.0625
100
AcDbArc
50
232.602616656
51
306.203162041
0
ARC
5
EF
100
AcDbEntity
8
0
6
CONTINUOUS
62
7
370
-1
100
AcDbCircle
10
13.1261703477
20
32.7018552901
40
0.0625
100
AcDbArc
50
317.796837959
51
31.3973833444
0
ARC
5
F0
100
AcDbEntity
8
0
6
CONTINUOUS
62
7
370
-1
100
AcDbCircle
10
13.1193751369
20
32.694308444
40
0.0625
100
AcDbArc
50
244.602616656
51
318.203162041
0
ARC
5
F1
100
AcDbEntity
8
0
6
CONTINUOUS
62
7
370
-1
100
AcDbCircle
10
12.9493476812
20
32.4602857279
40
0.0625
100
AcDbArc
50
329.796837959
51
43.3973833444
0
ARC
5
F2
100
AcDbEntity
8
0
6
CONTINUOUS
62
7
370
-1
100
AcDbCircle
10
12.9442700396
20
32.4514909947
40
0.0625
100
AcDbArc
50
256.602616656
51
330.203162041
0
ARC
5
F3
100
AcDbEntity
8
0
6
CONTINUOUS
62
7
370
-1
100
AcDbCircle
10
12.8266141503
20
32.1872315407
40
0.0625
100
AcDbArc
50
341.796837959
51
55.3973833444
0
ARC
5
F4
100
AcDbEntity
8
0
6
CONTINUOUS
62
7
370
-1
100
AcDbCircle
10
12.8234759952
20
32.1775732924
40
0.0625
100
AcDbArc
50
268.602616656
51
342.203162041
0
ARC
5
F5
100
AcDbEntity
8
0
6
CONTINUOUS
62
7
370
-1
100
AcDbCircle
10
12.7633337992
20
31.8946265066
40
0.0625
100
AcDbArc
50
353.796837959
51
67.3973833444
0
ARC
5
F6
100
AcDbEntity
8
0
6
CONTINUOUS
62
7
370
-1
100
AcDbCircle
10
12.7622722831
20
31.8845268551
40
0.0625
100
AcDbArc
50
280.602616656
51
354.203162041
0
ARC
5
F7
100
AcDbEntity
8
0
6
CONTINUOUS
62
7
370
-1
100
AcDbCircle
10
12.6319728966
20
31.7484334832
40
0.03
100
AcDbArc
50
115.69557519
51
179.685309335
0
ARC
5
F8
100
AcDbEntity
8
0
6
CONTINUOUS
62
7
370
-1
100
AcDbCircle
10
12.6641771701
20
32.0548366775
40
0.03
100
AcDbArc
50
168.314690665
51
232.30442481
0
ARC
5
F9
100
AcDbEntity
8
0
6
CONTINUOUS
62
7
370
-1
100
AcDbCircle
10
12.6677285599
20
32.071544653
40
0.03
100
AcDbArc
50
103.69557519
51
167.685309335
0
ARC
5
FA
100
AcDbEntity
8
0
6
CONTINUOUS
62
7
370
-1
100
AcDbCircle
10
12.7629338989
20
32.3645565574
40
0.03
100
AcDbArc
50
156.314690665
51
220.30442481
0
ARC
5
FB
100
AcDbEntity
8
0
6
CONTINUOUS
62
7
370
-1
100
AcDbCircle
10
12.7698814657
20
32.380161048
40
0.03
100
AcDbArc
50
91.6955751901
51
155.685309335
0
ARC
5
FC
100
AcDbEntity
8
0
6
CONTINUOUS
62
7
370
-1
100
AcDbCircle
10
12.9239269401
20
32.6469756364
40
0.03
100
AcDbArc
50
144.314690665
51
208.30442481
0
ARC
5
FD
100
AcDbEntity
8
0
6
CONTINUOUS
62
7
370
-1
100
AcDbCircle
10
12.933967042
20
32.660794651
40
0.03
100
AcDbArc
50
79.6955751901
51
143.685309335
0
ARC
5
FE
100
AcDbEntity
8
0
6
CONTINUOUS
62
7
370
-1
100
AcDbCircle
10
13.1401201253
20
32.8897508454
40
0.03
100
AcDbArc
50
132.314690665
51
196.30442481
0
ARC
5
FF
100
AcDbEntity
8
0
6
CONTINUOUS
62
7
370
-1
100
AcDbCircle
10
13.1528139616
20
32.9011804269
40
0.03
100
AcDbArc
50
67.69557519
51
131.685309335
0
ARC
5
100
100
AcDbEntity
8
0
6
CONTINUOUS
62
7
370
-1
100
AcDbCircle
10
13.402064775
20
33.082271743
40
0.03
100
AcDbArc
50
120.314690665
51
184.30442481
0
ARC
5
101
100
AcDbEntity
8
0
6
CONTINUOUS
62
7
370
-1
100
AcDbCircle
10
13.4168575641
20
33.0908123637
40
0.03
100
AcDbArc
50
55.6955751901
51
119.685309335
0
ARC
5
102
100
AcDbEntity
8
0
6
CONTINUOUS
62
7
370
-1
100
AcDbCircle
10
13.6983126509
20
33.216124242
40
0.03
100
AcDbArc
50
108.314690665
51
172.30442481
0
ARC
5
103
100
AcDbEntity
8
0
6
CONTINUOUS
62
7
370
-1
100
AcDbCircle
10
13.7145578769
20
33.2214026359
40
0.03
100
AcDbArc
50
43.6955751901
51
107.685309335
0
ARC
5
104
100
AcDbEntity
8
0
6
CONTINUOUS
62
7
370
-1
100
AcDbCircle
10
14.0159162993
20
33.285458346
40
0.03
100
AcDbArc
50
96.3146906654
51
160.30442481
0
ARC
5
105
100
AcDbEntity
8
0
6
CONTINUOUS
62
7
370
-1
100
AcDbCircle
10
14.032903968
20
33.2872438219
40
0.03
100
AcDbArc
50
31.6955751901
51
95.6853093346
0
CIRCLE
5
106
100
AcDbEntity
8
0
6
CONTINUOUS
62
7
370
-1
100
AcDbCircle
10
14.5333596039
20
31.5398928625
40
0.09375
0
ARC
5
107
100
AcDbEntity
8
0
6
CONTINUOUS
62
7
370
-1
100
AcDbCircle
10
14.192027084
20
30.3079018647
40
0.0625
100
AcDbArc
50
16.6026166556
51
90.2031620408
0
ARC
5
108
100
AcDbEntity
8
0
6
CONTINUOUS
62
7
370
-1
100
AcDbCircle
10
14.479710429
20
30.3381386027
40
0.0625
100
AcDbArc
50
101.796837959
51
175.397383344
0
ARC
5
109
100
AcDbEntity
8
0
6
CONTINUOUS
62
7
370
-1
100
AcDbCircle
10
14.4896437949
20
30.3402500048
40
0.0625
100
AcDbArc
50
28.6026166556
51
102.203162041
0
ARC
5
10A
100
AcDbEntity
8
0
6
CONTINUOUS
62
7
370
-1
100
AcDbCircle
10
14.7647539973
20
30.4296387282
40
0.0625
100
AcDbArc
50
113.796837959
51
187.397383344
0
ARC
5
10B
100
AcDbEntity
8
0
6
CONTINUOUS
62
7
370
-1
100
AcDbCircle
10
14.7740313101
20
30.433769254
40
0.0625
100
AcDbArc
50
40.6026166556
51
114.203162041
0
ARC
5
10C
100
AcDbEntity
8
0
6
CONTINUOUS
62
7
370
-1
100
AcDbCircle
10
15.0245447339
20
30.5784032467
40
0.0625
100
AcDbArc
50
125.796837959
51
199.397383344
0
ARC
5
10D
100
AcDbEntity
8
0
6
CONTINUOUS
62
7
370
-1
100
AcDbCircle
10
15.0327605306
20
30.5843723723
40
0.0625
100
AcDbArc
50
52.6026166556
51
126.203162041
0
ARC
5
10E
100
AcDbEntity
8
0
6
CONTINUOUS
62
7
370
-1
100
AcDbCircle
10
15.2477285371
20
30.7779304348
40
0.0625
100
AcDbArc
50
137.796837959
51
211.397383344
0
ARC
5
10F
100
AcDbEntity
8
0
6
CONTINUOUS
62
7
370
-1
100
AcDbCircle
10
15.2545237479
20
30.7854772809
40
0.0625
100
AcDbArc
50
64.6026166556
51
138.203162041
0
ARC
5
110
100
AcDbEntity
8
0
6
CONTINUOUS
62
7
370
-1
100
AcDbCircle
10
15.4245512036
20
31.019499997
40
0.0625
100
AcDbArc
50
149.796837959
51
223.397383344
0
ARC
5
111
100
AcDbEntity
8
0
6
CONTINUOUS
62
7
370
-1
100
AcDbCircle
10
15.4296288452
20
31.0282947302
40
0.0625
100
AcDbArc
50
76.6026166556
51
150.203162041
0
ARC
5
112
100
AcDbEntity
8
0
6
CONTINUOUS
62
7
370
-1
100
AcDbCircle
10
15.5472847345
20
31.2925541842
40
0.0625
100
AcDbArc
50
161.796837959
51
235.397383344
0
ARC
5
113
100
AcDbEntity
8
0
6
CONTINUOUS
62
7
370
-1
100
AcDbCircle
10
15.5504228896
20
31.3022124325
40
0.0625
100
AcDbArc
50
88.6026166556
51
162.203162041
0
ARC
5
114
100
AcDbEntity
8
0
6
CONTINUOUS
62
7
370
-1
100
AcDbCircle
10
15.6105650855
20
31.5851592183
40
0.0625
100
AcDbArc
50
173.796837959
51
247.397383344
0
ARC
5
115
100
AcDbEntity
8
0
6
CONTINUOUS
62
7
370
-1
100
AcDbCircle
10
15.6116266017
20
31.5952588698
40
0.0625
100
AcDbArc
50
100.602616656
51
174.203162041
0
CIRCLE
5
116
100
AcDbEntity
8
0
6
CONTINUOUS
62
7
370
-1
100
AcDbCircle
10
14.5333596039
20
31.5398928625
40
0.046875
0
ARC
5
117
100
AcDbEntity
8
0
6
CONTINUOUS
62
7
370
-1
100
AcDbCircle
10
15.7419259881
20
31.7313522417
40
0.03
100
AcDbArc
50
295.69557519
51
359.685309335
0
ARC
5
118
100
AcDbEntity
8
0
6
CONTINUOUS
62
7
370
-1
100
AcDbCircle
10
15.7097217147
20
31.4249490474
40
0.03
100
AcDbArc
50
348.314690665
51
52.3044248099
0
ARC
5
119
100
AcDbEntity
8
0
6
CONTINUOUS
62
7
370
-1
100
AcDbCircle
10
15.7061703249
20
31.4082410719
40
0.03
100
AcDbArc
50
283.69557519
51
347.685309335
0
ARC
5
11A
100
AcDbEntity
8
0
6
CONTINUOUS
62
7
370
-1
100
AcDbCircle
10
15.6109649859
20
31.1152291675
40
0.03
100
AcDbArc
50
336.314690665
51
40.3044248099
0
ARC
5
11B
100
AcDbEntity
8
0
6
CONTINUOUS
62
7
370
-1
100
AcDbCircle
10
15.6040174191
20
31.0996246769
40
0.03
100
AcDbArc
50
271.69557519
51
335.685309335
0
ARC
5
11C
100
AcDbEntity
8
0
6
CONTINUOUS
62
7
370
-1
100
AcDbCircle
10
15.4499719447
20
30.8328100886
40
0.03
100
AcDbArc
50
324.314690665
51
28.30442481
0
ARC
5
11D
100
AcDbEntity
8
0
6
CONTINUOUS
62
7
370
-1
100
AcDbCircle
10
15.4399318428
20
30.8189910739
40
0.03
100
AcDbArc
50
259.69557519
51
323.685309335
0
ARC
5
11E
100
AcDbEntity
8
0
6
CONTINUOUS
62
7
370
-1
100
AcDbCircle
10
15.2337787594
20
30.5900348795
40
0.03
100
AcDbArc
50
312.314690665
51
16.3044248099
0
ARC
5
11F
100
AcDbEntity
8
0
6
CONTINUOUS
62
7
370
-1
100
AcDbCircle
10
15.2210849232
20
30.578605298
40
0.03
100
AcDbArc
50
247.69557519
51
311.685309335
0
ARC
5
120
100
AcDbEntity
8
0
6
CONTINUOUS
62
7
370
-1
100
AcDbCircle
10
14.9718341098
20
30.3975139819
40
0.03
100
AcDbArc
50
300.314690665
51
4.3044248099
0
ARC
5
121
100
AcDbEntity
8
0
6
CONTINUOUS
62
7
370
-1
100
AcDbCircle
10
14.9570413207
20
30.3889733612
40
0.03
100
AcDbArc
50
235.69557519
51
299.685309335
0
ARC
5
122
100
AcDbEntity
8
0
6
CONTINUOUS
62
7
370
-1
100
AcDbCircle
10
14.6755862339
20
30.2636614829
40
0.03
100
AcDbArc
50
288.314690665
51
352.30442481
0
ARC
5
123
100
AcDbEntity
8
0
6
CONTINUOUS
62
7
370
-1
100
AcDbCircle
10
14.6593410078
20
30.258383089
40
0.03
100
AcDbArc
50
223.69557519
51
287.685309335
0
ARC
5
124
100
AcDbEntity
8
0
6
CONTINUOUS
62
7
370
-1
100
AcDbCircle
10
14.3579825855
20
30.1943273789
40
0.03
100
AcDbArc
50
276.314690665
51
340.30442481
0
ARC
5
125
100
AcDbEntity
8
0
6
CONTINUOUS
62
7
370
-1
100
AcDbCircle
10
14.3409949168
20
30.192541903
40
0.03
100
AcDbArc
50
211.69557519
51
275.685309335
0
ARC
5
126
100
AcDbEntity
8
0
6
CONTINUOUS
62
7
370
-1
100
AcDbCircle
10
14.1869494424
20
31.7398928625
40
1.585
100
AcDbArc
50
23.6853093346
51
24.3146906654
0
ARC
5
127
100
AcDbEntity
8
0
6
CONTINUOUS
62
7
370
-1
100
AcDbCircle
10
14.1869494424
20
31.7398928625
40
1.585
100
AcDbArc
50
11.6853093346
51
12.3146906654
0
ARC
5
128
100
AcDbEntity
8
0
6
CONTINUOUS
62
7
370
-1
100
AcDbCircle
10
14.1869494424
20
31.7398928625
40
1.585
100
AcDbArc
50
359.685309335
51
0.3146906654
0
ARC
5
129
100
AcDbEntity
8
0
6
CONTINUOUS
62
7
370
-1
100
AcDbCircle
10
14.1869494424
20
31.7398928625
40
1.585
100
AcDbArc
50
347.685309335
51
348.314690665
0
ARC
5
12A
100
AcDbEntity
8
0
6
CONTINUOUS
62
7
370
-1
100
AcDbCircle
10
14.1869494424
20
31.7398928625
40
1.585
100
AcDbArc
50
335.685309335
51
336.314690665
0
ARC
5
12B
100
AcDbEntity
8
0
6
CONTINUOUS
62
7
370
-1
100
AcDbCircle
10
14.1869494424
20
31.7398928625
40
1.585
100
AcDbArc
50
323.685309335
51
324.314690665
0
ARC
5
12C
100
AcDbEntity
8
0
6
CONTINUOUS
62
7
370
-1
100
AcDbCircle
10
14.1869494424
20
31.7398928625
40
1.585
100
AcDbArc
50
311.685309335
51
312.314690665
0
ARC
5
12D
100
AcDbEntity
8
0
6
CONTINUOUS
62
7
370
-1
100
AcDbCircle
10
14.1869494424
20
31.7398928625
40
1.585
100
AcDbArc
50
299.685309335
51
300.314690665
0
ARC
5
12E
100
AcDbEntity
8
0
6
CONTINUOUS
62
7
370
-1
100
AcDbCircle
10
14.1869494424
20
31.7398928625
40
1.585
100
AcDbArc
50
287.685309335
51
288.314690665
0
ARC
5
12F
100
AcDbEntity
8
0
6
CONTINUOUS
62
7
370
-1
100
AcDbCircle
10
14.1869494424
20
31.7398928625
40
1.585
100
AcDbArc
50
275.685309335
51
276.314690665
0
ARC
5
130
100
AcDbEntity
8
0
6
CONTINUOUS
62
7
370
-1
100
AcDbCircle
10
14.1869494424
20
31.7398928625
40
1.585
100
AcDbArc
50
263.685309335
51
264.314690665
0
ARC
5
131
100
AcDbEntity
8
0
6
CONTINUOUS
62
7
370
-1
100
AcDbCircle
10
14.1869494424
20
31.7398928625
40
1.585
100
AcDbArc
50
251.685309335
51
252.314690665
0
ARC
5
132
100
AcDbEntity
8
0
6
CONTINUOUS
62
7
370
-1
100
AcDbCircle
10
14.1869494424
20
31.7398928625
40
1.585
100
AcDbArc
50
239.685309335
51
240.314690665
0
ARC
5
133
100
AcDbEntity
8
0
6
CONTINUOUS
62
7
370
-1
100
AcDbCircle
10
14.1869494424
20
31.7398928625
40
1.585
100
AcDbArc
50
227.685309335
51
228.314690665
0
ARC
5
134
100
AcDbEntity
8
0
6
CONTINUOUS
62
7
370
-1
100
AcDbCircle
10
14.1869494424
20
31.7398928625
40
1.585
100
AcDbArc
50
215.685309335
51
216.314690665
0
ARC
5
135
100
AcDbEntity
8
0
6
CONTINUOUS
62
7
370
-1
100
AcDbCircle
10
14.1869494424
20
31.7398928625
40
1.585
100
AcDbArc
50
203.685309335
51
204.314690665
0
ARC
5
136
100
AcDbEntity
8
0
6
CONTINUOUS
62
7
370
-1
100
AcDbCircle
10
14.1869494424
20
31.7398928625
40
1.585
100
AcDbArc
50
191.685309335
51
192.314690665
0
ARC
5
137
100
AcDbEntity
8
0
6
CONTINUOUS
62
7
370
-1
100
AcDbCircle
10
14.1869494424
20
31.7398928625
40
1.585
100
AcDbArc
50
179.685309335
51
180.314690665
0
ARC
5
138
100
AcDbEntity
8
0
6
CONTINUOUS
62
7
370
-1
100
AcDbCircle
10
14.1869494424
20
31.7398928625
40
1.585
100
AcDbArc
50
167.685309335
51
168.314690665
0
ARC
5
139
100
AcDbEntity
8
0
6
CONTINUOUS
62
7
370
-1
100
AcDbCircle
10
14.1869494424
20
31.7398928625
40
1.585
100
AcDbArc
50
155.685309335
51
156.314690665
0
ARC
5
13A
100
AcDbEntity
8
0
6
CONTINUOUS
62
7
370
-1
100
AcDbCircle
10
14.1869494424
20
31.7398928625
40
1.585
100
AcDbArc
50
143.685309335
51
144.314690665
0
ARC
5
13B
100
AcDbEntity
8
0
6
CONTINUOUS
62
7
370
-1
100
AcDbCircle
10
14.1869494424
20
31.7398928625
40
1.585
100
AcDbArc
50
131.685309335
51
132.314690665
0
ARC
5
13C
100
AcDbEntity
8
0
6
CONTINUOUS
62
7
370
-1
100
AcDbCircle
10
14.1869494424
20
31.7398928625
40
1.585
100
AcDbArc
50
119.685309335
51
120.314690665
0
ARC
5
13D
100
AcDbEntity
8
0
6
CONTINUOUS
62
7
370
-1
100
AcDbCircle
10
14.1869494424
20
31.7398928625
40
1.585
100
AcDbArc
50
107.685309335
51
108.314690665
0
ARC
5
13E
100
AcDbEntity
8
0
6
CONTINUOUS
62
7
370
-1
100
AcDbCircle
10
14.1869494424
20
31.7398928625
40
1.585
100
AcDbArc
50
95.6853093346
51
96.3146906654
0
ARC
5
13F
100
AcDbEntity
8
0
6
CONTINUOUS
62
7
370
-1
100
AcDbCircle
10
14.1869494424
20
31.7398928625
40
1.585
100
AcDbArc
50
83.6853093346
51
84.3146906654
0
ARC
5
140
100
AcDbEntity
8
0
6
CONTINUOUS
62
7
370
-1
100
AcDbCircle
10
14.1869494424
20
31.7398928625
40
1.585
100
AcDbArc
50
71.6853093346
51
72.3146906654
0
ARC
5
141
100
AcDbEntity
8
0
6
CONTINUOUS
62
7
370
-1
100
AcDbCircle
10
14.1869494424
20
31.7398928625
40
1.585
100
AcDbArc
50
59.6853093346
51
60.3146906654
0
ARC
5
142
100
AcDbEntity
8
0
6
CONTINUOUS
62
7
370
-1
100
AcDbCircle
10
14.1869494424
20
31.7398928625
40
1.585
100
AcDbArc
50
47.6853093346
51
48.3146906654
0
ARC
5
143
100
AcDbEntity
8
0
6
CONTINUOUS
62
7
370
-1
100
AcDbCircle
10
14.1869494424
20
31.7398928625
40
1.585
100
AcDbArc
50
35.6853093346
51
36.3146906654
0
ARC
5
144
100
AcDbEntity
8
0
6
CONTINUOUS
62
7
370
-1
100
AcDbCircle
10
14.1869494424
20
31.7398928625
40
1.3695
100
AcDbArc
50
29.7968379592
51
30.2031620408
0
ARC
5
145
100
AcDbEntity
8
0
6
CONTINUOUS
62
7
370
-1
100
AcDbCircle
10
14.1869494424
20
31.7398928625
40
1.3695
100
AcDbArc
50
17.7968379592
51
18.2031620408
0
ARC
5
146
100
AcDbEntity
8
0
6
CONTINUOUS
62
7
370
-1
100
AcDbCircle
10
14.1869494424
20
31.7398928625
40
1.3695
100
AcDbArc
50
5.7968379592
51
6.2031620408
0
ARC
5
147
100
AcDbEntity
8
0
6
CONTINUOUS
62
7
370
-1
100
AcDbCircle
10
14.1869494424
20
31.7398928625
40
1.3695
100
AcDbArc
50
353.796837959
51
354.203162041
0
ARC
5
148
100
AcDbEntity
8
0
6
CONTINUOUS
62
7
370
-1
100
AcDbCircle
10
14.1869494424
20
31.7398928625
40
1.3695
100
AcDbArc
50
341.796837959
51
342.203162041
0
ARC
5
149
100
AcDbEntity
8
0
6
CONTINUOUS
62
7
370
-1
100
AcDbCircle
10
14.1869494424
20
31.7398928625
40
1.3695
100
AcDbArc
50
329.796837959
51
330.203162041
0
ARC
5
14A
100
AcDbEntity
8
0
6
CONTINUOUS
62
7
370
-1
100
AcDbCircle
10
14.1869494424
20
31.7398928625
40
1.3695
100
AcDbArc
50
317.796837959
51
318.203162041
0
ARC
5
14B
100
AcDbEntity
8
0
6
CONTINUOUS
62
7
370
-1
100
AcDbCircle
10
14.1869494424
20
31.7398928625
40
1.3695
100
AcDbArc
50
305.796837959
51
306.203162041
0
ARC
5
14C
100
AcDbEntity
8
0
6
CONTINUOUS
62
7
370
-1
100
AcDbCircle
10
14.1869494424
20
31.7398928625
40
1.3695
100
AcDbArc
50
293.796837959
51
294.203162041
0
ARC
5
14D
100
AcDbEntity
8
0
6
CONTINUOUS
62
7
370
-1
100
AcDbCircle
10
14.1869494424
20
31.7398928625
40
1.3695
100
AcDbArc
50
281.796837959
51
282.203162041
0
ARC
5
14E
100
AcDbEntity
8
0
6
CONTINUOUS
62
7
370
-1
100
AcDbCircle
10
14.1869494424
20
31.7398928625
40
1.3695
100
AcDbArc
50
269.796837959
51
270.203162041
0
ARC
5
14F
100
AcDbEntity
8
0
6
CONTINUOUS
62
7
370
-1
100
AcDbCircle
10
14.1869494424
20
31.7398928625
40
1.3695
100
AcDbArc
50
257.796837959
51
258.203162041
0
ARC
5
150
100
AcDbEntity
8
0
6
CONTINUOUS
62
7
370
-1
100
AcDbCircle
10
14.1869494424
20
31.7398928625
40
1.3695
100
AcDbArc
50
245.796837959
51
246.203162041
0
ARC
5
151
100
AcDbEntity
8
0
6
CONTINUOUS
62
7
370
-1
100
AcDbCircle
10
14.1869494424
20
31.7398928625
40
1.3695
100
AcDbArc
50
233.796837959
51
234.203162041
0
ARC
5
152
100
AcDbEntity
8
0
6
CONTINUOUS
62
7
370
-1
100
AcDbCircle
10
14.1869494424
20
31.7398928625
40
1.3695
100
AcDbArc
50
221.796837959
51
222.203162041
0
ARC
5
153
100
AcDbEntity
8
0
6
CONTINUOUS
62
7
370
-1
100
AcDbCircle
10
14.1869494424
20
31.7398928625
40
1.3695
100
AcDbArc
50
209.796837959
51
210.203162041
0
ARC
5
154
100
AcDbEntity
8
0
6
CONTINUOUS
62
7
370
-1
100
AcDbCircle
10
14.1869494424
20
31.7398928625
40
1.3695
100
AcDbArc
50
197.796837959
51
198.203162041
0
ARC
5
155
100
AcDbEntity
8
0
6
CONTINUOUS
62
7
370
-1
100
AcDbCircle
10
14.1869494424
20
31.7398928625
40
1.3695
100
AcDbArc
50
185.796837959
51
186.203162041
0
ARC
5
156
100
AcDbEntity
8
0
6
CONTINUOUS
62
7
370
-1
100
AcDbCircle
10
14.1869494424
20
31.7398928625
40
1.3695
100
AcDbArc
50
173.796837959
51
174.203162041
0
ARC
5
157
100
AcDbEntity
8
0
6
CONTINUOUS
62
7
370
-1
100
AcDbCircle
10
14.1869494424
20
31.7398928625
40
1.3695
100
AcDbArc
50
161.796837959
51
162.203162041
0
ARC
5
158
100
AcDbEntity
8
0
6
CONTINUOUS
62
7
370
-1
100
AcDbCircle
10
14.1869494424
20
31.7398928625
40
1.3695
100
AcDbArc
50
149.796837959
51
150.203162041
0
ARC
5
159
100
AcDbEntity
8
0
6
CONTINUOUS
62
7
370
-1
100
AcDbCircle
10
14.1869494424
20
31.7398928625
40
1.3695
100
AcDbArc
50
137.796837959
51
138.203162041
0
ARC
5
15A
100
AcDbEntity
8
0
6
CONTINUOUS
62
7
370
-1
100
AcDbCircle
10
14.1869494424
20
31.7398928625
40
1.3695
100
AcDbArc
50
125.796837959
51
126.203162041
0
ARC
5
15B
100
AcDbEntity
8
0
6
CONTINUOUS
62
7
370
-1
100
AcDbCircle
10
14.1869494424
20
31.7398928625
40
1.3695
100
AcDbArc
50
113.796837959
51
114.203162041
0
ARC
5
15C
100
AcDbEntity
8
0
6
CONTINUOUS
62
7
370
-1
100
AcDbCircle
10
14.1869494424
20
31.7398928625
40
1.3695
100
AcDbArc
50
101.796837959
51
102.203162041
0
ARC
5
15D
100
AcDbEntity
8
0
6
CONTINUOUS
62
7
370
-1
100
AcDbCircle
10
14.1869494424
20
31.7398928625
40
1.3695
100
AcDbArc
50
89.7968379592
51
90.2031620408
0
ARC
5
15E
100
AcDbEntity
8
0
6
CONTINUOUS
62
7
370
-1
100
AcDbCircle
10
14.1869494424
20
31.7398928625
40
1.3695
100
AcDbArc
50
77.7968379592
51
78.2031620408
0
ARC
5
15F
100
AcDbEntity
8
0
6
CONTINUOUS
62
7
370
-1
100
AcDbCircle
10
14.1869494424
20
31.7398928625
40
1.3695
100
AcDbArc
50
65.7968379592
51
66.2031620408
0
ARC
5
160
100
AcDbEntity
8
0
6
CONTINUOUS
62
7
370
-1
100
AcDbCircle
10
14.1869494424
20
31.7398928625
40
1.3695
100
AcDbArc
50
53.7968379592
51
54.2031620408
0
ARC
5
161
100
AcDbEntity
8
0
6
CONTINUOUS
62
7
370
-1
100
AcDbCircle
10
14.1869494424
20
31.7398928625
40
1.3695
100
AcDbArc
50
41.7968379592
51
42.2031620408
0
ARC
5
162
100
AcDbEntity
8
0
6
CONTINUOUS
62
7
370
-1
100
AcDbCircle
10
14.1869494424
20
31.7398928625
40
1.2195
100
AcDbArc
50
100.680159917
51
113.031335838
0
ARC
5
163
100
AcDbEntity
8
0
6
CONTINUOUS
62
7
370
-1
100
AcDbCircle
10
14.1869494424
20
31.7398928625
40
1.2195
100
AcDbArc
50
40.6801599173
51
53.0313358377
0
ARC
5
164
100
AcDbEntity
8
0
6
CONTINUOUS
62
7
370
-1
100
AcDbCircle
10
14.1869494424
20
31.7398928625
40
1.2195
100
AcDbArc
50
340.680159917
51
353.031335838
0
ARC
5
165
100
AcDbEntity
8
0
6
CONTINUOUS
62
7
370
-1
100
AcDbCircle
10
14.1869494424
20
31.7398928625
40
1.2195
100
AcDbArc
50
280.680159917
51
293.031335838
0
ARC
5
166
100
AcDbEntity
8
0
6
CONTINUOUS
62
7
370
-1
100
AcDbCircle
10
14.1869494424
20
31.7398928625
40
1.2195
100
AcDbArc
50
220.680159917
51
233.031335838
0
ARC
5
167
100
AcDbEntity
8
0
6
CONTINUOUS
62
7
370
-1
100
AcDbCircle
10
14.1869494424
20
31.7398928625
40
1.2195
100
AcDbArc
50
160.680159917
51
173.031335838
0
CIRCLE
5
168
100
AcDbEntity
8
0
6
CONTINUOUS
62
7
370
-1
100
AcDbCircle
10
14.1869494424
20
31.7398928625
40
0.125
0
CIRCLE
5
169
100
AcDbEntity
8
0
6
CONTINUOUS
62
7
370
-1
100
AcDbCircle
10
14.1869494424
20
32.1398928625
40
0.09375
0
CIRCLE
5
16A
100
AcDbEntity
8
0
6
CONTINUOUS
62
7
370
-1
100
AcDbCircle
10
14.1869494424
20
32.1398928625
40
0.046875
0
ARC
5
16B
100
AcDbEntity
8
0
6
CONTINUOUS
62
7
370
-1
100
AcDbCircle
10
14.7647539973
20
33.0501469967
40
0.0625
100
AcDbArc
50
172.602616656
51
246.203162041
0
ARC
5
16C
100
AcDbEntity
8
0
6
CONTINUOUS
62
7
370
-1
100
AcDbCircle
10
14.7740313101
20
33.0460164709
40
0.0625
100
AcDbArc
50
245.796837959
51
319.397383344
0
ARC
5
16D
100
AcDbEntity
8
0
6
CONTINUOUS
62
7
370
-1
100
AcDbCircle
10
14.4896437949
20
33.1395357201
40
0.0625
100
AcDbArc
50
257.796837959
51
331.397383344
0
ARC
5
16E
100
AcDbEntity
8
0
6
CONTINUOUS
62
7
370
-1
100
AcDbCircle
10
14.479710429
20
33.1416471222
40
0.0625
100
AcDbArc
50
184.602616656
51
258.203162041
0
ARC
5
16F
100
AcDbEntity
8
0
6
CONTINUOUS
62
7
370
-1
100
AcDbCircle
10
14.192027084
20
33.1718838602
40
0.0625
100
AcDbArc
50
269.796837959
51
343.397383344
0
ARC
5
170
100
AcDbEntity
8
0
6
CONTINUOUS
62
7
370
-1
100
AcDbCircle
10
14.3409949168
20
33.2872438219
40
0.03
100
AcDbArc
50
84.3146906654
51
148.30442481
0
ARC
5
171
100
AcDbEntity
8
0
6
CONTINUOUS
62
7
370
-1
100
AcDbCircle
10
14.3579825855
20
33.285458346
40
0.03
100
AcDbArc
50
19.6955751901
51
83.6853093346
0
ARC
5
172
100
AcDbEntity
8
0
6
CONTINUOUS
62
7
370
-1
100
AcDbCircle
10
14.6593410078
20
33.2214026359
40
0.03
100
AcDbArc
50
72.3146906654
51
136.30442481
0
ARC
5
173
100
AcDbEntity
8
0
6
CONTINUOUS
62
7
370
-1
100
AcDbCircle
10
14.6755862339
20
33.216124242
40
0.03
100
AcDbArc
50
7.6955751901
51
71.6853093346
0
ARC
5
174
100
AcDbEntity
8
0
6
CONTINUOUS
62
7
370
-1
100
AcDbCircle
10
14.9570413207
20
33.0908123637
40
0.03
100
AcDbArc
50
60.3146906654
51
124.30442481
0
ARC
5
175
100
AcDbEntity
8
0
6
CONTINUOUS
62
7
370
-1
100
AcDbCircle
10
15.6116266017
20
31.8845268551
40
0.0625
100
AcDbArc
50
185.796837959
51
259.397383344
0
ARC
5
176
100
AcDbEntity
8
0
6
CONTINUOUS
62
7
370
-1
100
AcDbCircle
10
15.6105650855
20
31.8946265066
40
0.0625
100
AcDbArc
50
112.602616656
51
186.203162041
0
ARC
5
177
100
AcDbEntity
8
0
6
CONTINUOUS
62
7
370
-1
100
AcDbCircle
10
15.5504228896
20
32.1775732924
40
0.0625
100
AcDbArc
50
197.796837959
51
271.397383344
0
ARC
5
178
100
AcDbEntity
8
0
6
CONTINUOUS
62
7
370
-1
100
AcDbCircle
10
15.5472847345
20
32.1872315407
40
0.0625
100
AcDbArc
50
124.602616656
51
198.203162041
0
ARC
5
179
100
AcDbEntity
8
0
6
CONTINUOUS
62
7
370
-1
100
AcDbCircle
10
15.4296288452
20
32.4514909947
40
0.0625
100
AcDbArc
50
209.796837959
51
283.397383344
0
ARC
5
17A
100
AcDbEntity
8
0
6
CONTINUOUS
62
7
370
-1
100
AcDbCircle
10
15.4245512036
20
32.4602857279
40
0.0625
100
AcDbArc
50
136.602616656
51
210.203162041
0
ARC
5
17B
100
AcDbEntity
8
0
6
CONTINUOUS
62
7
370
-1
100
AcDbCircle
10
15.6040174191
20
32.380161048
40
0.03
100
AcDbArc
50
24.3146906654
51
88.3044248099
0
ARC
5
17C
100
AcDbEntity
8
0
6
CONTINUOUS
62
7
370
-1
100
AcDbCircle
10
15.6109649859
20
32.3645565574
40
0.03
100
AcDbArc
50
319.69557519
51
23.6853093346
0
ARC
5
17D
100
AcDbEntity
8
0
6
CONTINUOUS
62
7
370
-1
100
AcDbCircle
10
15.7061703249
20
32.071544653
40
0.03
100
AcDbArc
50
12.3146906654
51
76.3044248099
0
ARC
5
17E
100
AcDbEntity
8
0
6
CONTINUOUS
62
7
370
-1
100
AcDbCircle
10
15.7097217147
20
32.0548366775
40
0.03
100
AcDbArc
50
307.69557519
51
11.6853093346
0
ARC
5
17F
100
AcDbEntity
8
0
6
CONTINUOUS
62
7
370
-1
100
AcDbCircle
10
15.7419259881
20
31.7484334832
40
0.03
100
AcDbArc
50
0.3146906654
51
64.3044248099
0
ARC
5
180
100
AcDbEntity
8
0
6
CONTINUOUS
62
7
370
-1
100
AcDbCircle
10
15.2477285371
20
32.7018552901
40
0.0625
100
AcDbArc
50
148.602616656
51
222.203162041
0
ARC
5
181
100
AcDbEntity
8
0
6
CONTINUOUS
62
7
370
-1
100
AcDbCircle
10
15.2545237479
20
32.694308444
40
0.0625
100
AcDbArc
50
221.796837959
51
295.397383344
0
ARC
5
182
100
AcDbEntity
8
0
6
CONTINUOUS
62
7
370
-1
100
AcDbCircle
10
15.0327605306
20
32.8954133526
40
0.0625
100
AcDbArc
50
233.796837959
51
307.397383344
0
ARC
5
183
100
AcDbEntity
8
0
6
CONTINUOUS
62
7
370
-1
100
AcDbCircle
10
15.0245447339
20
32.9013824782
40
0.0625
100
AcDbArc
50
160.602616656
51
234.203162041
0
ARC
5
184
100
AcDbEntity
8
0
6
CONTINUOUS
62
7
370
-1
100
AcDbCircle
10
15.4499719447
20
32.6469756364
40
0.03
100
AcDbArc
50
331.69557519
51
35.6853093346
0
ARC
5
185
100
AcDbEntity
8
0
6
CONTINUOUS
62
7
370
-1
100
AcDbCircle
10
14.9718341098
20
33.082271743
40
0.03
100
AcDbArc
50
355.69557519
51
59.6853093346
0
ARC
5
186
100
AcDbEntity
8
0
6
CONTINUOUS
62
7
370
-1
100
AcDbCircle
10
15.2210849232
20
32.9011804269
40
0.03
100
AcDbArc
50
48.3146906654
51
112.30442481
0
ARC
5
187
100
AcDbEntity
8
0
6
CONTINUOUS
62
7
370
-1
100
AcDbCircle
10
15.2337787594
20
32.8897508454
40
0.03
100
AcDbArc
50
343.69557519
51
47.6853093346
0
ARC
5
188
100
AcDbEntity
8
0
6
CONTINUOUS
62
7
370
-1
100
AcDbCircle
10
15.4399318428
20
32.660794651
40
0.03
100
AcDbArc
50
36.3146906654
51
100.30442481
0
CIRCLE
5
189
100
AcDbEntity
8
0
6
CONTINUOUS
62
7
370
-1
100
AcDbCircle
10
18.9693062817
20
32.5792256887
40
0.55
0
CIRCLE
5
18A
100
AcDbEntity
8
0
6
CONTINUOUS
62
7
370
-1
100
AcDbCircle
10
18.9693062817
20
32.5792256887
40
0.125
0
CIRCLE
5
18B
100
AcDbEntity
8
0
6
CONTINUOUS
62
7
370
-1
100
AcDbCircle
10
19.1191489191
20
32.9500992305
40
0.09375
0
CIRCLE
5
18C
100
AcDbEntity
8
0
6
CONTINUOUS
62
7
370
-1
100
AcDbCircle
10
18.5731990542
20
32.5235564483
40
0.09375
0
CIRCLE
5
18D
100
AcDbEntity
8
0
6
CONTINUOUS
62
7
370
-1
100
AcDbCircle
10
19.2155708718
20
32.2640213872
40
0.09375
0
CIRCLE
5
18E
100
AcDbEntity
8
0
6
CONTINUOUS
62
7
370
-1
100
AcDbCircle
10
19.1191489191
20
32.9500992305
40
0.046875
0
CIRCLE
5
18F
100
AcDbEntity
8
0
6
CONTINUOUS
62
7
370
-1
100
AcDbCircle
10
18.5731990542
20
32.5235564483
40
0.046875
0
CIRCLE
5
190
100
AcDbEntity
8
0
6
CONTINUOUS
62
7
370
-1
100
AcDbCircle
10
19.2155708718
20
32.2640213872
40
0.046875
0
ENDSEC
0
SECTION
2
OBJECTS
0
DICTIONARY
5
C
330
0
100
AcDbDictionary
281
1
3
ACAD_GROUP
350
D
0
DICTIONARY
5
D
330
C
100
AcDbDictionary
281
1
0
ENDSEC
0
EOF
