999
dxfrw 0.5.10
0
SECTION
2
HEADER
9
$ACADVER
1
AC1021
9
$HANDSEED
5
20000
9
$DWGCODEPAGE
3
ANSI_1252
9
$INSBASE
10
0
20
0
30
0
9
$EXTMIN
10
0
20
0
30
0
9
$EXTMAX
10
22
20
17
30
0
9
$LIMMIN
10
0
20
0
9
$LIMMAX
10
22
20
17
9
$ORTHOMODE
70
0
9
$LTSCALE
40
1.21
9
$TEXTSTYLE
7
STANDARD
9
$CLAYER
8
0
9
$DIMASZ
40
0.1875
9
$DIMLFAC
40
1
9
$DIMSCALE
40
1
9
$DIMEXO
40
0.1375
9
$DIMEXE
40
0.396
9
$DIMTXT
40
0.15625
9
$DIMTSZ
40
0
9
$DIMAUNIT
70
0
9
$DIMADEC
70
0
9
$DIMLUNIT
70
2
9
$DIMSTYLE
2
Standard
9
$DIMGAP
40
0.025
9
$DIMTIH
70
0
9
$LUNITS
70
2
9
$LUPREC
70
4
9
$AUNITS
70
0
9
$AUPREC
70
2
9
$SPLINESEGS
70
8
9
$GRIDMODE
70
0
9
$SNAPSTYLE
70
0
9
$VIEWCTR
10
11
20
8.5
9
$PINSBASE
10
0
20
0
30
0
9
$PLIMMIN
10
0
20
0
9
$PLIMMAX
10
4.77216932881e-11
20
6.7492109079e-11
9
$INSUNITS
70
1
9
$PSVPSCALE
40
1
0
ENDSEC
0
SECTION
2
CLASSES
0
ENDSEC
0
SECTION
2
TABLES
0
TABLE
2
VPORT
5
8
330
0
100
AcDbSymbolTable
70
1
0
VPORT
5
31
330
2
100
AcDbSymbolTableRecord
100
AcDbViewportTableRecord
2
*ACTIVE
70
0
10
0
20
0
11
1
21
1
12
17.672052301
22
12.0803876981
13
0
23
0
14
10
24
10
15
10
25
10
16
0
26
0
36
1
17
0
27
0
37
0
40
41.50390625
41
1.7507204611
42
50
43
0
44
0
50
0
51
0
71
0
72
100
73
1
74
3
75
0
76
0
77
0
78
0
281
0
65
1
110
0
120
0
130
0
111
1
121
0
131
0
112
0
122
1
132
0
79
0
146
0
348
10020
60
7
61
5
292
1
282
1
141
0
142
0
63
250
421
3358443
0
ENDTAB
0
TABLE
2
LTYPE
5
5
330
0
100
AcDbSymbolTable
70
4
0
LTYPE
5
14
330
5
100
AcDbSymbolTableRecord
100
AcDbLinetypeTableRecord
2
ByBlock
70
0
3

72
65
73
0
40
0
0
LTYPE
5
15
330
5
100
AcDbSymbolTableRecord
100
AcDbLinetypeTableRecord
2
ByLayer
70
0
3

72
65
73
0
40
0
0
LTYPE
5
16
330
5
100
AcDbSymbolTableRecord
100
AcDbLinetypeTableRecord
2
Continuous
70
0
3
Solid line
72
65
73
0
40
0
0
LTYPE
5
32
330
5
100
AcDbSymbolTableRecord
100
AcDbLinetypeTableRecord
2
DOT
70
0
3
Dot . . . . . . . . . . . . . . . . . . . . . .
72
65
73
2
40
6.35
49
0
74
0
49
-6.35
74
0
0
LTYPE
5
33
330
5
100
AcDbSymbolTableRecord
100
AcDbLinetypeTableRecord
2
DOT2
70
0
3
Dot (.5x) .....................................
72
65
73
2
40
3.175
49
0
74
0
49
-3.175
74
0
0
LTYPE
5
34
330
5
100
AcDbSymbolTableRecord
100
AcDbLinetypeTableRecord
2
DOTX2
70
0
3
Dot (2x) .  .  .  .  .  .  .  .  .  .  .  .  .
72
65
73
2
40
12.7
49
0
74
0
49
-12.7
74
0
0
LTYPE
5
35
330
5
100
AcDbSymbolTableRecord
100
AcDbLinetypeTableRecord
2
DASHED
70
0
3
Dot . . . . . . . . . . . . . . . . . . . . . .
72
65
73
2
40
19.05
49
12.7
74
0
49
-6.35
74
0
0
LTYPE
5
36
330
5
100
AcDbSymbolTableRecord
100
AcDbLinetypeTableRecord
2
DASHED2
70
0
3
Dashed (.5x) _ _ _ _ _ _ _ _ _ _ _ _ _ _ _ _ _
72
65
73
2
40
9.525
49
6.35
74
0
49
-3.175
74
0
0
LTYPE
5
37
330
5
100
AcDbSymbolTableRecord
100
AcDbLinetypeTableRecord
2
DASHEDX2
70
0
3
Dashed (2x) ____  ____  ____  ____  ____  ___
72
65
73
2
40
38.1
49
25.4
74
0
49
-12.7
74
0
0
LTYPE
5
38
330
5
100
AcDbSymbolTableRecord
100
AcDbLinetypeTableRecord
2
DASHDOT
70
0
3
Dash dot __ . __ . __ . __ . __ . __ . __ . __
72
65
73
4
40
25.4
49
12.7
74
0
49
-6.35
74
0
49
0
74
0
49
-6.35
74
0
0
LTYPE
5
39
330
5
100
AcDbSymbolTableRecord
100
AcDbLinetypeTableRecord
2
DASHDOT2
70
0
3
Dash dot (.5x) _._._._._._._._._._._._._._._.
72
65
73
4
40
12.7
49
6.35
74
0
49
-3.175
74
0
49
0
74
0
49
-3.175
74
0
0
LTYPE
5
3A
330
5
100
AcDbSymbolTableRecord
100
AcDbLinetypeTableRecord
2
DASHDOTX2
70
0
3
Dash dot (2x) ____  .  ____  .  ____  .  ___
72
65
73
4
40
50.8
49
25.4
74
0
49
-12.7
74
0
49
0
74
0
49
-12.7
74
0
0
LTYPE
5
3B
330
5
100
AcDbSymbolTableRecord
100
AcDbLinetypeTableRecord
2
DIVIDE
70
0
3
Divide ____ . . ____ . . ____ . . ____ . . ____
72
65
73
6
40
31.75
49
12.7
74
0
49
-6.35
74
0
49
0
74
0
49
-6.35
74
0
49
0
74
0
49
-6.35
74
0
0
LTYPE
5
3C
330
5
100
AcDbSymbolTableRecord
100
AcDbLinetypeTableRecord
2
DIVIDE2
70
0
3
Divide (.5x) __..__..__..__..__..__..__..__.._
72
65
73
6
40
15.875
49
6.35
74
0
49
-3.175
74
0
49
0
74
0
49
-3.175
74
0
49
0
74
0
49
-3.175
74
0
0
LTYPE
5
3D
330
5
100
AcDbSymbolTableRecord
100
AcDbLinetypeTableRecord
2
DIVIDEX2
70
0
3
Divide (2x) ________  .  .  ________  .  .  _
72
65
73
6
40
63.5
49
25.4
74
0
49
-12.7
74
0
49
0
74
0
49
-12.7
74
0
49
0
74
0
49
-12.7
74
0
0
LTYPE
5
3E
330
5
100
AcDbSymbolTableRecord
100
AcDbLinetypeTableRecord
2
BORDER
70
0
3
Border __ __ . __ __ . __ __ . __ __ . __ __ .
72
65
73
6
40
44.45
49
12.7
74
0
49
-6.35
74
0
49
12.7
74
0
49
-6.35
74
0
49
0
74
0
49
-6.35
74
0
0
LTYPE
5
3F
330
5
100
AcDbSymbolTableRecord
100
AcDbLinetypeTableRecord
2
BORDER2
70
0
3
Border (.5x) __.__.__.__.__.__.__.__.__.__.__.
72
65
73
6
40
22.225
49
6.35
74
0
49
-3.175
74
0
49
6.35
74
0
49
-3.175
74
0
49
0
74
0
49
-3.175
74
0
0
LTYPE
5
40
330
5
100
AcDbSymbolTableRecord
100
AcDbLinetypeTableRecord
2
BORDERX2
70
0
3
Border (2x) ____  ____  .  ____  ____  .  ___
72
65
73
6
40
88.9
49
25.4
74
0
49
-12.7
74
0
49
25.4
74
0
49
-12.7
74
0
49
0
74
0
49
-12.7
74
0
0
LTYPE
5
41
330
5
100
AcDbSymbolTableRecord
100
AcDbLinetypeTableRecord
2
CENTER
70
0
3
Center ____ _ ____ _ ____ _ ____ _ ____ _ ____
72
65
73
4
40
50.8
49
31.75
74
0
49
-6.35
74
0
49
6.35
74
0
49
-6.35
74
0
0
LTYPE
5
42
330
5
100
AcDbSymbolTableRecord
100
AcDbLinetypeTableRecord
2
CENTER2
70
0
3
Center (.5x) ___ _ ___ _ ___ _ ___ _ ___ _ ___
72
65
73
4
40
28.575
49
19.05
74
0
49
-3.175
74
0
49
3.175
74
0
49
-3.175
74
0
0
LTYPE
5
43
330
5
100
AcDbSymbolTableRecord
100
AcDbLinetypeTableRecord
2
CENTERX2
70
0
3
Center (2x) ________  __  ________  __  _____
72
65
73
4
40
101.6
49
63.5
74
0
49
-12.7
74
0
49
12.7
74
0
49
-12.7
74
0
0
ENDTAB
0
TABLE
2
LAYER
5
2
330
0
100
AcDbSymbolTable
70
1
0
LAYER
5
10
330
2
100
AcDbSymbolTableRecord
100
AcDbLayerTableRecord
2
0
70
0
62
7
6
CONTINUOUS
370
-3
390
F
0
LAYER
5
44
330
2
100
AcDbSymbolTableRecord
100
AcDbLayerTableRecord
2
DEFAULT_1
70
0
62
7
6
CENTER
370
-3
390
F
0
LAYER
5
45
330
2
100
AcDbSymbolTableRecord
100
AcDbLayerTableRecord
2
DEFAULT_2
70
0
62
8
6
DASHED
370
-3
390
F
0
LAYER
5
46
330
2
100
AcDbSymbolTableRecord
100
AcDbLayerTableRecord
2
DEFAULT_3
70
0
62
7
6
CONTINUOUS
370
-3
390
F
0
LAYER
5
47
330
2
100
AcDbSymbolTableRecord
100
AcDbLayerTableRecord
2
01___PRT_ALL_DTM_PLN
70
0
62
7
6
CONTINUOUS
370
-3
390
F
0
LAYER
5
48
330
2
100
AcDbSymbolTableRecord
100
AcDbLayerTableRecord
2
01___PRT_DEF_DTM_PLN
70
0
62
7
6
CONTINUOUS
370
-3
390
F
0
LAYER
5
49
330
2
100
AcDbSymbolTableRecord
100
AcDbLayerTableRecord
2
02___PRT_ALL_AXES
70
0
62
7
6
CONTINUOUS
370
-3
390
F
0
LAYER
5
4A
330
2
100
AcDbSymbolTableRecord
100
AcDbLayerTableRecord
2
03___PRT_ALL_CURVES
70
0
62
7
6
CONTINUOUS
370
-3
390
F
0
LAYER
5
4B
330
2
100
AcDbSymbolTableRecord
100
AcDbLayerTableRecord
2
04___PRT_ALL_DTM_PNT
70
0
62
7
6
CONTINUOUS
370
-3
390
F
0
LAYER
5
4C
330
2
100
AcDbSymbolTableRecord
100
AcDbLayerTableRecord
2
05___PRT_ALL_DTM_CSYS
70
0
62
7
6
CONTINUOUS
370
-3
390
F
0
LAYER
5
4D
330
2
100
AcDbSymbolTableRecord
100
AcDbLayerTableRecord
2
05___PRT_DEF_DTM_CSYS
70
0
62
7
6
CONTINUOUS
370
-3
390
F
0
LAYER
5
4E
330
2
100
AcDbSymbolTableRecord
100
AcDbLayerTableRecord
2
06___PRT_ALL_SURFS
70
0
62
7
6
CONTINUOUS
370
-3
390
F
0
ENDTAB
0
TABLE
2
STYLE
5
3
330
0
100
AcDbSymbolTable
70
3
0
STYLE
5
4F
330
2
100
AcDbSymbolTableRecord
100
AcDbTextStyleTableRecord
2
Standard
70
0
40
0
41
1
50
0
71
0
42
1
3
txt
4

0
ENDTAB
0
TABLE
2
VIEW
5
6
330
0
100
AcDbSymbolTable
70
0
0
ENDTAB
0
TABLE
2
UCS
5
7
330
0
100
AcDbSymbolTable
70
0
0
ENDTAB
0
TABLE
2
APPID
5
9
330
0
100
AcDbSymbolTable
70
1
0
APPID
5
12
330
9
100
AcDbSymbolTableRecord
100
AcDbRegAppTableRecord
2
ACAD
70
0
0
ENDTAB
0
TABLE
2
DIMSTYLE
5
A
330
0
100
AcDbSymbolTable
70
1
100
AcDbDimStyleTable
71
1
0
DIMSTYLE
105
50
330
A
100
AcDbSymbolTableRecord
100
AcDbDimStyleTableRecord
2
Standard
70
0
40
1
41
0.1875
42
0.1375
43
0.38
44
0.396
45
0
46
0
47
0
48
0
140
0.15625
141
0.09
142
0
143
25.4
144
1
145
0
146
1
147
0.025
148
0
71
0
72
0
73
0
74
1
75
0
76
0
77
0
78
0
79
0
170
0
171
2
172
0
173
0
174
0
175
0
176
0
177
0
178
0
179
0
271
4
272
4
273
2
274
2
275
0
276
0
277
2
278
46
279
0
280
0
281
0
282
0
283
1
284
0
285
0
286
0
288
0
289
3
340
Standard
341

371
-2
372
-2
0
ENDTAB
0
TABLE
2
BLOCK_RECORD
5
1
330
0
100
AcDbSymbolTable
70
2
0
BLOCK_RECORD
5
1F
330
1
100
AcDbSymbolTableRecord
100
AcDbBlockTableRecord
2
*Model_Space
70
0
280
1
281
0
0
BLOCK_RECORD
5
1E
330
1
100
AcDbSymbolTableRecord
100
AcDbBlockTableRecord
2
*Paper_Space
70
0
280
1
281
0
0
ENDTAB
0
ENDSEC
0
SECTION
2
BLOCKS
0
BLOCK
5
20
330
1F
100
AcDbEntity
8
0
100
AcDbBlockBegin
2
*Model_Space
70
0
10
0
20
0
30
0
3
*Model_Space
1

0
ENDBLK
5
21
330
1F
100
AcDbEntity
8
0
100
AcDbBlockEnd
0
BLOCK
5
1C
330
1B
100
AcDbEntity
8
0
100
AcDbBlockBegin
2
*Paper_Space
70
0
10
0
20
0
30
0
3
*Paper_Space
1

0
ENDBLK
5
1D
330
1F
100
AcDbEntity
8
0
100
AcDbBlockEnd
0
ENDSEC
0
SECTION
2
ENTITIES
0
LINE
5
51
100
AcDbEntity
8
0
6
CONTINUOUS
62
7
370
-1
100
AcDbLine
10
1.7688665006
20
4.7018419317
11
1.0944645075
21
5.6668737084
0
LINE
5
52
100
AcDbEntity
8
0
6
CONTINUOUS
62
7
370
-1
100
AcDbLine
10
3.9597232971
20
2.1916682066
11
3.9422841787
21
2.4410592192
0
LINE
5
53
100
AcDbEntity
8
0
6
CONTINUOUS
62
7
370
-1
100
AcDbLine
10
3.3779499609
20
3.0793566466
11
2.7003834009
21
2.1134067904
0
LINE
5
54
100
AcDbEntity
8
0
6
CONTINUOUS
62
7
370
-1
100
AcDbLine
10
1.9880347136
20
1.0978709706
11
1.9800168627
21
1.0864405926
0
LINE
5
55
100
AcDbEntity
8
0
6
CONTINUOUS
62
7
370
-1
100
AcDbLine
10
0.7201011941
20
5.3482279784
11
1.6515574944
21
4.4369150749
0
LINE
5
56
100
AcDbEntity
8
0
6
CONTINUOUS
62
7
370
-1
100
AcDbLine
10
6.1343838461
20
5.0459890523
11
3.9420450769
21
3.6465621634
0
LINE
5
57
100
AcDbEntity
8
0
6
CONTINUOUS
62
7
370
-1
100
AcDbLine
10
1.7164942737
20
4.3833030022
11
3.3467985349
21
3.2538912712
0
LINE
5
58
100
AcDbEntity
8
0
6
CONTINUOUS
62
7
370
-1
100
AcDbLine
10
2.9997875573
20
1.8865137844
11
3.1818894643
21
2.0997868851
0
LINE
5
59
100
AcDbEntity
8
0
6
CONTINUOUS
62
7
370
-1
100
AcDbLine
10
4.2313894998
20
3.2348366083
11
5.3242400432
21
4.0805083167
0
LINE
5
5A
100
AcDbEntity
8
0
6
CONTINUOUS
62
7
370
-1
100
AcDbLine
10
6.0513600901
20
4.6431697492
11
6.2867564113
21
4.825324583
0
LINE
5
5B
100
AcDbEntity
8
0
6
CONTINUOUS
62
7
370
-1
100
AcDbLine
10
3.2682317724
20
2.1433144088
11
3.9597232971
21
2.1916682066
0
LINE
5
5C
100
AcDbEntity
8
0
6
CONTINUOUS
62
7
370
-1
100
AcDbLine
10
3.9422841787
20
2.4410592192
11
3.7000933652
21
2.4241235877
0
LINE
5
5D
100
AcDbEntity
8
0
6
CONTINUOUS
62
7
370
-1
100
AcDbLine
10
3.7913350953
20
2.5831765109
11
6.8413421315
21
2.7964537793
0
LINE
5
5E
100
AcDbEntity
8
0
6
CONTINUOUS
62
7
370
-1
100
AcDbLine
10
3.6789139789
20
3.6366919383
11
1.9464422445
21
4.5454742908
0
LINE
5
5F
100
AcDbEntity
8
0
6
CONTINUOUS
62
7
370
-1
100
AcDbLine
10
7.3492574639
20
4.9596229739
11
7.0843662923
21
4.7451183326
0
LINE
5
60
100
AcDbEntity
8
0
6
CONTINUOUS
62
7
370
-1
100
AcDbLine
10
7.2186124331
20
4.5321388225
11
7.9873195848
21
5.1546256001
0
LINE
5
61
100
AcDbEntity
8
0
6
CONTINUOUS
62
7
370
-1
100
AcDbLine
10
6.8239454939
20
3.0452372879
11
4.1664829587
21
2.8982183587
0
LINE
5
62
100
AcDbEntity
8
0
6
CONTINUOUS
62
7
370
-1
100
AcDbLine
10
6.8413421315
20
2.7964537793
11
6.8239454939
21
3.0452372879
0
LINE
5
63
100
AcDbEntity
8
0
6
CONTINUOUS
62
7
370
-1
100
AcDbLine
10
5.3741830889
20
4.1037966993
11
7.1143935973
21
4.4821320591
0
LINE
5
64
100
AcDbEntity
8
0
6
CONTINUOUS
62
7
370
-1
100
AcDbLine
10
7.0322568744
20
4.7201149509
11
6.1090705023
21
4.5194070213
0
LINE
5
65
100
AcDbEntity
8
0
6
CONTINUOUS
62
7
370
-1
100
AcDbLine
10
6.733869395
20
5.0103231963
11
7.2961791029
21
5.0834388416
0
LINE
5
66
100
AcDbEntity
8
0
6
CONTINUOUS
62
7
370
-1
100
AcDbLine
10
8.0498668951
20
5.1814388736
11
10.1635083882
21
5.4562700914
0
LINE
5
67
100
AcDbEntity
8
0
6
CONTINUOUS
62
7
370
-1
100
AcDbLine
10
10.0827182095
20
5.9463484377
11
6.68954966
21
5.2696097626
0
ARC
5
68
100
AcDbEntity
8
0
6
CONTINUOUS
62
7
370
-1
100
AcDbCircle
10
2.256743524
20
1.223986619
40
0.895
100
AcDbArc
50
70.4509675177
51
34.7474353051
0
ARC
5
69
100
AcDbEntity
8
0
6
CONTINUOUS
62
7
370
-1
100
AcDbCircle
10
2.256743524
20
1.223986619
40
0.645
100
AcDbArc
50
264.274338901
51
198.8883111
0
ARC
5
6A
100
AcDbEntity
8
0
6
CONTINUOUS
62
7
370
-1
100
AcDbCircle
10
3.8262133321
20
2.0843944858
40
0.5
100
AcDbArc
50
94
51
107.737586775
0
ARC
5
6B
100
AcDbEntity
8
0
6
CONTINUOUS
62
7
370
-1
100
AcDbCircle
10
3.8221876315
20
3.2547006479
40
0.375
100
AcDbArc
50
83.9612060373
51
99.8119781956
0
ARC
5
6C
100
AcDbEntity
8
0
6
CONTINUOUS
62
7
370
-1
100
AcDbCircle
10
3.8221876315
20
3.2547006479
40
0.375
100
AcDbArc
50
319.907717047
51
346.264234386
0
ARC
5
6D
100
AcDbEntity
8
0
6
CONTINUOUS
62
7
370
-1
100
AcDbCircle
10
1.9081477279
20
0.7844625526
40
0.25
100
AcDbArc
50
94.6598513399
51
127.644040064
0
ARC
5
6E
100
AcDbEntity
8
0
6
CONTINUOUS
62
7
370
-1
100
AcDbCircle
10
1.9081477279
20
0.7844625526
40
0.25
100
AcDbArc
50
335.518609937
51
9.8002177049
0
ARC
5
6F
100
AcDbEntity
8
0
6
CONTINUOUS
62
7
370
-1
100
AcDbCircle
10
2.256743524
20
1.223986619
40
0.25
100
AcDbArc
50
273.375541799
51
188.330828922
0
CIRCLE
5
70
100
AcDbEntity
8
0
6
CONTINUOUS
62
7
370
-1
100
AcDbCircle
10
1.9081477279
20
0.7844625526
40
0.15625
0
ARC
5
71
100
AcDbEntity
8
0
6
CONTINUOUS
62
7
370
-1
100
AcDbCircle
10
3.0948494246
20
1.8053458018
40
0.125
100
AcDbArc
50
139.507849991
51
214.747435305
0
ARC
5
72
100
AcDbEntity
8
0
6
CONTINUOUS
62
7
370
-1
100
AcDbCircle
10
2.5980492216
20
2.1851892099
40
0.125
100
AcDbArc
50
250.450967518
51
324.952219054
0
ARC
5
73
100
AcDbEntity
8
0
6
CONTINUOUS
62
7
370
-1
100
AcDbCircle
10
3.2769513316
20
2.0186189025
40
0.125
100
AcDbArc
50
94
51
139.507849991
0
ARC
5
74
100
AcDbEntity
8
0
6
CONTINUOUS
62
7
370
-1
100
AcDbCircle
10
1.8857005343
20
1.1696533901
40
0.125
100
AcDbArc
50
324.952219054
51
8.3308289215
0
ARC
5
75
100
AcDbEntity
8
0
6
CONTINUOUS
62
7
370
-1
100
AcDbCircle
10
4.3078881764
20
3.135978364
40
0.125
100
AcDbArc
50
127.733489922
51
166.264234386
0
ARC
5
76
100
AcDbEntity
8
0
6
CONTINUOUS
62
7
370
-1
100
AcDbCircle
10
1.8776826834
20
1.1582230121
40
0.125
100
AcDbArc
50
274.65985134
51
324.952219054
0
ARC
5
77
100
AcDbEntity
8
0
6
CONTINUOUS
62
7
370
-1
100
AcDbCircle
10
2.2776754473
20
0.8482925189
40
0.125
100
AcDbArc
50
93.3755417987
51
189.800217705
0
ARC
5
78
100
AcDbEntity
8
0
6
CONTINUOUS
62
7
370
-1
100
AcDbCircle
10
3.2756157817
20
3.1511390662
40
0.125
100
AcDbArc
50
324.952219054
51
55.2872803377
0
CIRCLE
5
79
100
AcDbEntity
8
0
6
CONTINUOUS
62
7
370
-1
100
AcDbCircle
10
3.8221876315
20
3.2547006479
40
0.09375
0
CIRCLE
5
7A
100
AcDbEntity
8
0
6
CONTINUOUS
62
7
370
-1
100
AcDbCircle
10
1.9081477279
20
0.7844625526
40
0.0859375
0
ARC
5
7B
100
AcDbEntity
8
0
6
CONTINUOUS
62
7
370
-1
100
AcDbCircle
10
1.7127064567
20
1.0378450886
40
0.07
100
AcDbArc
50
198.8883111
51
307.644040064
0
ARC
5
7C
100
AcDbEntity
8
0
6
CONTINUOUS
62
7
370
-1
100
AcDbCircle
10
2.1993784214
20
0.6518553011
40
0.07
100
AcDbArc
50
155.518609937
51
264.274338901
0
ARC
5
7D
100
AcDbEntity
8
0
6
CONTINUOUS
62
7
370
-1
100
AcDbCircle
10
3.695210412
20
2.4939530712
40
0.07
100
AcDbArc
50
107.737586775
51
274
0
ARC
5
7E
100
AcDbEntity
8
0
6
CONTINUOUS
62
7
370
-1
100
AcDbCircle
10
4.1626162581
20
2.9681114816
40
0.07
100
AcDbArc
50
139.907717047
51
273.166549276
0
CIRCLE
5
7F
100
AcDbEntity
8
0
6
CONTINUOUS
62
7
370
-1
100
AcDbCircle
10
2.256743524
20
1.223986619
40
0.0625
0
CIRCLE
5
80
100
AcDbEntity
8
02___PRT_ALL_AXES
6
CONTINUOUS
62
7
370
-1
100
AcDbCircle
10
3.8263082316
20
2.3076441537
40
0.046875
0
ARC
5
81
100
AcDbEntity
8
0
6
CONTINUOUS
62
7
370
-1
100
AcDbCircle
10
2.1787058475
20
4.9882537153
40
0.5
100
AcDbArc
50
214.947357315
51
242.320372082
0
ARC
5
82
100
AcDbEntity
8
0
6
CONTINUOUS
62
7
370
-1
100
AcDbCircle
10
2.0012252864
20
4.7943118226
40
0.5
100
AcDbArc
50
225.626277916
51
235.287280338
0
ARC
5
83
100
AcDbEntity
8
0
6
CONTINUOUS
62
7
370
-1
100
AcDbCircle
10
0.6971876315
20
5.7547006479
40
0.375
100
AcDbArc
50
358.140540891
51
262.587798822
0
CIRCLE
5
84
100
AcDbEntity
8
02___PRT_ALL_AXES
6
CONTINUOUS
62
7
370
-1
100
AcDbCircle
10
0.6971876315
20
5.7547006479
40
0.1328125
0
ARC
5
85
100
AcDbEntity
8
0
6
CONTINUOUS
62
7
370
-1
100
AcDbCircle
10
1.1969243442
20
5.7384766543
40
0.125
100
AcDbArc
50
178.140540891
51
214.947357315
0
ARC
5
86
100
AcDbEntity
8
0
6
CONTINUOUS
62
7
370
-1
100
AcDbCircle
10
5.4007387199
20
3.9816500724
40
0.125
100
AcDbArc
50
102.265676885
51
127.733489922
0
ARC
5
87
100
AcDbEntity
8
0
6
CONTINUOUS
62
7
370
-1
100
AcDbCircle
10
3.7369798796
20
3.7473867944
40
0.125
100
AcDbArc
50
242.320372082
51
279.811978196
0
ARC
5
88
100
AcDbEntity
8
0
6
CONTINUOUS
62
7
370
-1
100
AcDbCircle
10
3.8747885378
20
3.7519260944
40
0.125
100
AcDbArc
50
263.961206037
51
302.551149504
0
ARC
5
89
100
AcDbEntity
8
0
6
CONTINUOUS
62
7
370
-1
100
AcDbCircle
10
0.6326842461
20
5.2588787915
40
0.125
100
AcDbArc
50
45.6262779162
51
82.5877988218
0
CIRCLE
5
8A
100
AcDbEntity
8
02___PRT_ALL_AXES
6
CONTINUOUS
62
7
370
-1
100
AcDbCircle
10
6.6730335647
20
2.9096844978
40
0.046875
0
ARC
5
8B
100
AcDbEntity
8
0
6
CONTINUOUS
62
7
370
-1
100
AcDbCircle
10
10.4471876315
20
5.7547006479
40
0.375
100
AcDbArc
50
237.647746
51
141.062885772
0
ARC
5
8C
100
AcDbEntity
8
0
6
CONTINUOUS
62
7
370
-1
100
AcDbCircle
10
6.4377154643
20
5.0939995377
40
0.25
100
AcDbArc
50
258.547176958
51
326.379630737
0
ARC
5
8D
100
AcDbEntity
8
0
6
CONTINUOUS
62
7
370
-1
100
AcDbCircle
10
6.4377154643
20
5.0939995377
40
0.25
100
AcDbArc
50
52.6731316299
51
171.202511307
0
ARC
5
8E
100
AcDbEntity
8
0
6
CONTINUOUS
62
7
370
-1
100
AcDbCircle
10
7.0612823354
20
4.7264253129
40
0.25
100
AcDbArc
50
282.265676885
51
309
0
CIRCLE
5
8F
100
AcDbEntity
8
0
6
CONTINUOUS
62
7
370
-1
100
AcDbCircle
10
6.4377154643
20
5.0939995377
40
0.15625
0
CIRCLE
5
90
100
AcDbEntity
8
0
6
CONTINUOUS
62
7
370
-1
100
AcDbCircle
10
10.4471876315
20
5.7547006479
40
0.15625
0
ARC
5
91
100
AcDbEntity
8
0
6
CONTINUOUS
62
7
370
-1
100
AcDbCircle
10
7.0057012434
20
4.8422615778
40
0.125
100
AcDbArc
50
282.265676885
51
309
0
ARC
5
92
100
AcDbEntity
8
0
6
CONTINUOUS
62
7
370
-1
100
AcDbCircle
10
8.0659846337
20
5.0574823549
40
0.125
100
AcDbArc
50
97.4084535372
51
129
0
ARC
5
93
100
AcDbEntity
8
0
6
CONTINUOUS
62
7
370
-1
100
AcDbCircle
10
6.363255088
20
4.7264663387
40
0.125
100
AcDbArc
50
78.5471769577
51
127.733489922
0
ARC
5
94
100
AcDbEntity
8
0
6
CONTINUOUS
62
7
370
-1
100
AcDbCircle
10
6.0671273071
20
5.1513529832
40
0.125
100
AcDbArc
50
302.551149504
51
351.202511307
0
ARC
5
95
100
AcDbEntity
8
0
6
CONTINUOUS
62
7
370
-1
100
AcDbCircle
10
6.7499871336
20
4.8863666777
40
0.125
100
AcDbArc
50
97.4084535372
51
146.379630737
0
ARC
5
96
100
AcDbEntity
8
0
6
CONTINUOUS
62
7
370
-1
100
AcDbCircle
10
6.6651009758
20
5.3921954953
40
0.125
100
AcDbArc
50
232.67313163
51
281.279161045
0
ARC
5
97
100
AcDbEntity
8
0
6
CONTINUOUS
62
7
370
-1
100
AcDbCircle
10
10.1796261268
20
5.3323135728
40
0.125
100
AcDbArc
50
57.6477459997
51
97.4084535372
0
ARC
5
98
100
AcDbEntity
8
0
6
CONTINUOUS
62
7
370
-1
100
AcDbCircle
10
10.0582695253
20
6.0689341703
40
0.125
100
AcDbArc
50
281.279161045
51
321.062885772
0
CIRCLE
5
99
100
AcDbEntity
8
0
6
CONTINUOUS
62
7
370
-1
100
AcDbCircle
10
10.4471876315
20
5.7547006479
40
0.0859375
0
CIRCLE
5
9A
100
AcDbEntity
8
0
6
CONTINUOUS
62
7
370
-1
100
AcDbCircle
10
6.4377154643
20
5.0939995377
40
0.0859375
0
ARC
5
9B
100
AcDbEntity
8
0
6
CONTINUOUS
62
7
370
-1
100
AcDbCircle
10
6.094199349
20
4.5878091324
40
0.07
100
AcDbArc
50
127.733489922
51
282.265676885
0
ARC
5
9C
100
AcDbEntity
8
0
6
CONTINUOUS
62
7
370
-1
100
AcDbCircle
10
7.3052050365
20
5.0140231912
40
0.07
100
AcDbArc
50
309
51
97.4084535372
0
CIRCLE
5
9D
100
AcDbEntity
8
0
6
CONTINUOUS
62
7
370
-1
100
AcDbCircle
10
6.7372222696
20
4.5280520943
40
0.03125
0
CIRCLE
5
9E
100
AcDbEntity
8
0
6
CONTINUOUS
62
7
370
-1
100
AcDbCircle
10
6.8797266676
20
4.5590336638
40
0.03125
0
CIRCLE
5
9F
100
AcDbEntity
8
0
6
CONTINUOUS
62
7
370
-1
100
AcDbCircle
10
7.305458356
20
4.7633102099
40
0.03125
0
CIRCLE
5
A0
100
AcDbEntity
8
0
6
CONTINUOUS
62
7
370
-1
100
AcDbCircle
10
7.418792142
20
4.8550861003
40
0.03125
0
ENDSEC
0
SECTION
2
OBJECTS
0
DICTIONARY
5
C
330
0
100
AcDbDictionary
281
1
3
ACAD_GROUP
350
D
0
DICTIONARY
5
D
330
C
100
AcDbDictionary
281
1
0
ENDSEC
0
EOF
